  0
SECTION
  2
HEADER
  9
$ACADVER
  1
AC1009
  9
$INSBASE
 10
0.0
 20
0.0
 30
0.0
  9
$EXTMIN
 10
24.990845861601201
 20
5.9532181312715693
 30
-0.0015258207003583
  9
$EXTMAX
 10
475.01449695557181
 20
675.02060093686509
 30
0.0000000349246037
  9
$LIMMIN
 10
0.0
 20
0.0
  9
$LIMMAX
 10
0.0
 20
0.0
  9
$ORTHOMODE
 70
     0
  9
$REGENMODE
 70
     1
  9
$FILLMODE
 70
     1
  9
$QTEXTMODE
 70
     0
  9
$MIRRTEXT
 70
     1
  9
$DRAGMODE
 70
     2
  9
$LTSCALE
 40
12.699999999999999
  9
$OSMODE
 70
   231
  9
$ATTMODE
 70
     1
  9
$TEXTSIZE
 40
0.0
  9
$TRACEWID
 40
1.0
  9
$TEXTSTYLE
  7
STANDARD
  9
$CLAYER
  8
DATA
  9
$CELTYPE
  6
BYLAYER
  9
$CECOLOR
 62
   256
  9
$DIMSCALE
 40
1.0
  9
$DIMASZ
 40
0.18
  9
$DIMEXO
 40
0.0625
  9
$DIMDLI
 40
0.38
  9
$DIMRND
 40
0.0
  9
$DIMDLE
 40
0.0
  9
$DIMEXE
 40
0.18
  9
$DIMTP
 40
0.0
  9
$DIMTM
 40
0.0
  9
$DIMTXT
 40
0.18
  9
$DIMCEN
 40
0.09
  9
$DIMTSZ
 40
0.0
  9
$DIMTOL
 70
     0
  9
$DIMLIM
 70
     0
  9
$DIMTIH
 70
     1
  9
$DIMTOH
 70
     1
  9
$DIMSE1
 70
     0
  9
$DIMSE2
 70
     0
  9
$DIMTAD
 70
     0
  9
$DIMZIN
 70
     0
  9
$DIMBLK
  1

  9
$DIMASO
 70
     1
  9
$DIMSHO
 70
     1
  9
$DIMPOST
  1

  9
$DIMAPOST
  1

  9
$DIMALT
 70
     0
  9
$DIMALTD
 70
     2
  9
$DIMALTF
 40
25.399999999999999
  9
$DIMLFAC
 40
1.0
  9
$DIMTOFL
 70
     0
  9
$DIMTVP
 40
0.0
  9
$DIMTIX
 70
     0
  9
$DIMSOXD
 70
     0
  9
$DIMSAH
 70
     0
  9
$DIMBLK1
  1

  9
$DIMBLK2
  1

  9
$DIMSTYLE
  2
STANDARD
  9
$DIMCLRD
 70
     0
  9
$DIMCLRE
 70
     0
  9
$DIMCLRT
 70
     0
  9
$DIMTFAC
 40
1.0
  9
$DIMGAP
 40
0.09
  9
$LUNITS
 70
     2
  9
$LUPREC
 70
     4
  9
$SKETCHINC
 40
0.1
  9
$FILLETRAD
 40
0.0
  9
$AUNITS
 70
     0
  9
$AUPREC
 70
     0
  9
$MENU
  1
acad
  9
$ELEVATION
 40
0.0
  9
$PELEVATION
 40
0.0
  9
$THICKNESS
 40
0.0
  9
$LIMCHECK
 70
     0
  9
$BLIPMODE
 70
     0
  9
$CHAMFERA
 40
0.0
  9
$CHAMFERB
 40
0.0
  9
$SKPOLY
 70
     0
  9
$TDCREATE
 40
2454998.5491319448
  9
$TDUPDATE
 40
2454998.5571303698
  9
$TDINDWG
 40
0.000344294
  9
$TDUSRTIMER
 40
0.000344294
  9
$USRTIMER
 70
     1
  9
$ANGBASE
 50
0.0
  9
$ANGDIR
 70
     0
  9
$PDMODE
 70
     1
  9
$PDSIZE
 40
-2.0
  9
$PLINEWID
 40
0.0
  9
$COORDS
 70
     1
  9
$SPLFRAME
 70
     0
  9
$SPLINETYPE
 70
     6
  9
$SPLINESEGS
 70
     8
  9
$ATTDIA
 70
     0
  9
$ATTREQ
 70
     1
  9
$HANDLING
 70
     1
  9
$HANDSEED
  5
3C8
  9
$SURFTAB1
 70
     6
  9
$SURFTAB2
 70
     6
  9
$SURFTYPE
 70
     6
  9
$SURFU
 70
     6
  9
$SURFV
 70
     6
  9
$UCSNAME
  2

  9
$UCSORG
 10
0.0
 20
0.0
 30
0.0
  9
$UCSXDIR
 10
1.0
 20
0.0
 30
0.0
  9
$UCSYDIR
 10
0.0
 20
1.0
 30
0.0
  9
$PUCSNAME
  2

  9
$PUCSORG
 10
0.0
 20
0.0
 30
0.0
  9
$PUCSXDIR
 10
1.0
 20
0.0
 30
0.0
  9
$PUCSYDIR
 10
0.0
 20
1.0
 30
0.0
  9
$USERI1
 70
     0
  9
$USERI2
 70
     0
  9
$USERI3
 70
     0
  9
$USERI4
 70
     0
  9
$USERI5
 70
     0
  9
$USERR1
 40
0.0
  9
$USERR2
 40
0.0
  9
$USERR3
 40
0.0
  9
$USERR4
 40
0.0
  9
$USERR5
 40
0.0
  9
$WORLDVIEW
 70
     1
  9
$SHADEDGE
 70
     3
  9
$SHADEDIF
 70
    70
  9
$TILEMODE
 70
     1
  9
$MAXACTVP
 70
    64
  9
$PLIMCHECK
 70
     0
  9
$PEXTMIN
 10
1.0000000000000000E+020
 20
1.0000000000000000E+020
 30
1.0000000000000000E+020
  9
$PEXTMAX
 10
-1.0000000000000000E+020
 20
-1.0000000000000000E+020
 30
-1.0000000000000000E+020
  9
$PLIMMIN
 10
0.0
 20
0.0
  9
$PLIMMAX
 10
12.0
 20
9.0
  9
$UNITMODE
 70
     0
  9
$VISRETAIN
 70
     0
  9
$PLINEGEN
 70
     1
  9
$PSLTSCALE
 70
     0
  0
ENDSEC
  0
SECTION
  2
TABLES
  0
TABLE
  2
VPORT
 70
     1
  0
VPORT
  2
*ACTIVE
 70
     0
 10
0.0
 20
0.0
 11
1.0
 21
1.0
 12
250.00267140858659
 22
340.48690953406827
 13
0.0
 23
0.0
 14
1.0
 24
1.0
 15
0.0
 25
0.0
 16
0.0
 26
0.0
 36
1.0
 17
0.0
 27
0.0
 37
0.0
 40
673.993032249561
 41
1.961916461916462
 42
50.0
 43
0.0
 44
0.0
 50
0.0
 51
0.0
 71
     0
 72
  2000
 73
     1
 74
     1
 75
     0
 76
     0
 77
     0
 78
     0
  0
ENDTAB
  0
TABLE
  2
LTYPE
 70
    11
  0
LTYPE
  2
CONTINUOUS
 70
     0
  3
Solid line
 72
    65
 73
     0
 40
0.0
  0
LTYPE
  2
STYLE_01
 70
     0
  3

 72
    65
 73
     2
 40
0.4166412353515625
 49
0.208282470703125
 49
-0.2083587646484375
  0
ENDTAB
  0
TABLE
  2
LAYER
 70
     6
  0
LAYER
  2
0
 70
     0
 62
     7
  6
CONTINUOUS
  0
LAYER
  2
DATA
 70
     0
 62
     7
  6
CONTINUOUS
  0
LAYER
  2
HIBINO-BASE
 70
     0
 62
     7
  6
CONTINUOUS
  0
LAYER
  2
PATTERN_FILL
 70
     0
 62
     7
  6
CONTINUOUS
  0
LAYER
  2
SPEC
 70
     0
 62
     7
  6
CONTINUOUS
  0
LAYER
  2
DIMNSIONS
 70
     0
 62
     7
  6
CONTINUOUS
  0
ENDTAB
  0
TABLE
  2
STYLE
 70
     3
  0
STYLE
  2
STANDARD
 70
     0
 40
0.0
 41
1.0
 50
0.0
 71
     0
 42
0.0
  3
txt
  4
BIGFONT.SHX
  0
ENDTAB
  0
TABLE
  2
VIEW
 70
     0
  0
ENDTAB
  0
TABLE
  2
UCS
 70
     0
  0
ENDTAB
  0
TABLE
  2
APPID
 70
     3
  0
APPID
  2
ACAD
 70
     0
  0
APPID
  2
ACADANNOTATIVE
 70
     0
  0
APPID
  2
ACAD_MLEADERVER
 70
     0
  0
ENDTAB
  0
TABLE
  2
DIMSTYLE
 70
     2
  0
DIMSTYLE
  2
STANDARD
 70
     0
  3

  4

  5

  6

  7

 40
1.0
 41
0.18
 42
0.0625
 43
0.38
 44
0.18
 45
0.0
 46
0.0
 47
0.0
 48
0.0
140
0.18
141
0.09
142
0.0
143
25.399999999999999
144
1.0
145
0.0
146
1.0
147
0.09
 71
     0
 72
     0
 73
     1
 74
     1
 75
     0
 76
     0
 77
     0
 78
     0
170
     0
171
     2
172
     0
173
     0
174
     0
175
     0
176
     0
177
     0
178
     0
  0
ENDTAB
  0
ENDSEC
  0
SECTION
  2
BLOCKS
  0
BLOCK
  8
0
  2
$MODEL_SPACE
 70
     0
 10
0.0
 20
0.0
 30
0.0
  3
$MODEL_SPACE
  1

  0
ENDBLK
  5
35D
  8
0
  0
BLOCK
 67
     1
  8
0
  2
$PAPER_SPACE
 70
     0
 10
0.0
 20
0.0
 30
0.0
  3
$PAPER_SPACE
  1

  0
ENDBLK
  5
359
 67
     1
  8
0
  0
ENDSEC
  0
SECTION
  2
ENTITIES
  0
LINE
  5
2D
  8
HIBINO-BASE
  6
CONTINUOUS
 62
     7
 10
25.0
 20
675.0
 30
0.0
 11
475.0
 21
675.0
 31
0.0
  0
LINE
  5
2E
  8
HIBINO-BASE
  6
CONTINUOUS
 62
     7
 10
475.0
 20
25.0
 30
0.0
 11
25.0
 21
25.0
 31
0.0
  0
LINE
  5
2F
  8
HIBINO-BASE
  6
CONTINUOUS
 62
     7
 10
25.0
 20
25.0
 30
0.0
 11
25.0
 21
675.0
 31
0.0
  0
TEXT
  5
30
  8
HIBINO-BASE
 62
     7
 10
42.960000000000008
 20
8.9783055000000491
 30
0.0
 40
9.0001104492187487
  1
Hibino Corporation
 41
0.7
 11
42.960000000000008
 21
17.9784159492188
 31
0.0
 73
     3
  0
LINE
  5
31
  8
HIBINO-BASE
  6
CONTINUOUS
 62
     7
 10
475.0
 20
675.0
 30
0.0
 11
475.0
 21
25.0
 31
0.0
  0
LINE
  5
32
  8
HIBINO-BASE
  6
CONTINUOUS
 62
     7
 10
250.0
 20
81.250000000000057
 30
0.0
 11
475.0
 21
81.250000000000057
 31
0.0
  0
LINE
  5
33
  8
HIBINO-BASE
  6
CONTINUOUS
 62
     7
 10
250.0
 20
25.0
 30
0.0
 11
250.0
 21
81.250000000000057
 31
0.0
  0
TEXT
  5
34
  8
HIBINO-BASE
 62
     7
 10
252.25
 20
74.978266666666713
 30
0.0
 40
4.072102864583333
  1
NOTE
 41
0.7
 11
252.25
 21
79.050369531250041
 31
0.0
 73
     3
  0
LINE
  5
35
  8
HIBINO-BASE
  6
CONTINUOUS
 62
     7
 10
337.5
 20
25.0
 30
0.0
 11
337.5
 21
81.250000000000057
 31
0.0
  0
TEXT
  5
36
  8
HIBINO-BASE
 62
     7
 10
339.75
 20
74.978266666666713
 30
0.0
 40
4.072102864583333
  1
TITLE
 41
0.7
 11
339.75
 21
79.050369531250041
 31
0.0
 73
     3
  0
TEXT
  5
37
  8
HIBINO-BASE
 62
     7
 10
375.170975
 20
8.9783055000000491
 30
0.0
 40
9.0001104492187487
  1
ヒビノ株式会社
 41
0.7
 11
375.170975
 21
17.9784159492188
 31
0.0
 73
     3
  0
LINE
  5
38
  8
HIBINO-BASE
  6
CONTINUOUS
 62
     7
 10
250.0
 20
50.000000000000071
 30
0.0
 11
475.0
 21
50.000000000000071
 31
0.0
  0
TEXT
  5
39
  8
HIBINO-BASE
 62
     7
 10
371.0
 20
43.869066666666733
 30
0.0
 40
4.072102864583333
  1
DRAWN
 41
0.7
 11
371.0
 21
47.941169531250068
 31
0.0
 73
     3
  0
TEXT
  5
3A
  8
HIBINO-BASE
 62
     7
 10
308.5
 20
43.869066666666733
 30
0.0
 40
4.072102864583333
  1
DATE
 41
0.7
 11
308.5
 21
47.941169531250068
 31
0.0
 73
     3
  0
TEXT
  5
3B
  8
HIBINO-BASE
 62
     7
 10
283.5
 20
43.869066666666733
 30
0.0
 40
4.072102864583333
  1
SCALE
 41
0.7
 11
283.5
 21
47.941169531250068
 31
0.0
 73
     3
  0
TEXT
  5
3C
  8
HIBINO-BASE
 62
     7
 10
339.75
 20
43.869066666666733
 30
0.0
 40
4.072102864583333
  1
DESIGN
 41
0.7
 11
339.75
 21
47.941169531250068
 31
0.0
 73
     3
  0
TEXT
  5
3D
  8
HIBINO-BASE
 62
     7
 10
433.49999999999989
 20
43.869066666666733
 30
0.0
 40
4.072102864583333
  1
DRAWING NO.
 41
0.7
 11
433.49999999999989
 21
47.941169531250068
 31
0.0
 73
     3
  0
TEXT
  5
3E
  8
HIBINO-BASE
 62
     7
 10
402.24999999999989
 20
43.869066666666733
 30
0.0
 40
4.072102864583333
  1
CHECK
 41
0.7
 11
402.24999999999989
 21
47.941169531250068
 31
0.0
 73
     3
  0
LINE
  5
3F
  8
HIBINO-BASE
  6
CONTINUOUS
 62
     7
 10
285.9375
 20
28.125
 30
0.0
 11
295.3125
 21
37.50000000000005
 31
0.0
  0
TEXT
  5
40
  8
HIBINO-BASE
 62
     7
 10
284.375
 20
34.727641666666699
 30
0.0
 40
4.072102864583333
  1
1
 41
0.7
 11
284.375
 21
38.799744531250028
 31
0.0
 73
     3
  0
LINE
  5
41
  8
HIBINO-BASE
  6
CONTINUOUS
 62
     7
 10
281.25
 20
25.0
 30
0.0
 11
281.25
 21
50.000000000000071
 31
0.0
  0
LINE
  5
42
  8
HIBINO-BASE
  6
CONTINUOUS
 62
     7
 10
306.25
 20
25.0
 30
0.0
 11
306.25
 21
50.000000000000071
 31
0.0
  0
LINE
  5
43
  8
HIBINO-BASE
  6
CONTINUOUS
 62
     7
 10
368.75
 20
50.000000000000071
 30
0.0
 11
368.75
 21
25.0
 31
0.0
  0
LINE
  5
44
  8
HIBINO-BASE
  6
CONTINUOUS
 62
     7
 10
431.25
 20
50.000000000000071
 30
0.0
 11
431.25
 21
25.0
 31
0.0
  0
LINE
  5
45
  8
HIBINO-BASE
  6
CONTINUOUS
 62
     7
 10
400.0
 20
25.0
 30
0.0
 11
400.0
 21
50.000000000000071
 31
0.0
  0
TEXT
  5
46
  8
HIBINO-BASE
 62
     7
 10
308.39134999999999
 20
32.159116666666677
 30
0.0
 40
4.072102864583333
  1
'09.03.
 41
0.7
 11
308.39134999999999
 21
36.231219531250012
 31
0.0
 73
     3
  0
TEXT
  5
47
  8
HIBINO-BASE
 62
     7
 10
293.75
 20
30.040141666666699
 30
0.0
 40
4.072102864583333
  1
2.5
 41
0.7
 11
293.75
 21
34.112244531250028
 31
0.0
 73
     3
  0
TEXT
  5
48
  8
HIBINO-BASE
 62
     7
 10
372.5145250275865
 20
32.159116666666677
 30
0.0
 40
4.072102864583333
  1
N.Sasaki
 41
0.7
 11
372.5145250275865
 21
36.231219531250012
 31
0.0
 73
     3
  0
TEXT
  5
49
  8
HIBINO-BASE
 62
     7
 10
259.70833333333343
 20
29.940000000000008
 30
0.0
 40
8.1442057291666661
  1
A4
 41
0.7
 11
259.70833333333343
 21
38.084205729166683
 31
0.0
 73
     3
  0
TEXT
  5
4A
  8
HIBINO-BASE
 62
     7
 10
252.39583333333329
 20
43.451362500000052
 30
0.0
 40
4.072102864583333
  1
PAPER SIZE
 41
0.7
 11
252.39583333333329
 21
47.523465364583387
 31
0.0
 73
     3
  0
LINE
  5
4B
  8
PATTERN_FILL
  6
CONTINUOUS
 62
     7
 10
343.05635758751521
 20
358.05635758751521
 30
0.0
 11
341.03478260869559
 21
356.03478260869559
 31
0.0
  0
LINE
  5
4C
  8
PATTERN_FILL
  6
CONTINUOUS
 62
     7
 10
346.06918218499601
 20
358.26918218499611
 30
0.0
 11
340.91304347826087
 21
353.11304347826092
 31
0.0
  0
LINE
  5
4D
  8
PATTERN_FILL
  6
CONTINUOUS
 62
     7
 10
349.04412138254202
 20
358.44412138254199
 30
0.0
 11
340.7913043478261
 21
350.19130434782608
 31
0.0
  0
LINE
  5
4E
  8
PATTERN_FILL
  6
CONTINUOUS
 62
     7
 10
351.98264344631758
 20
358.5826434463176
 30
0.0
 11
340.66956521739132
 21
347.26956521739129
 31
0.0
  0
LINE
  5
4F
  8
PATTERN_FILL
  6
CONTINUOUS
 62
     7
 10
354.88611030812308
 20
358.68611030812309
 30
0.0
 11
340.54782608695649
 21
344.3478260869565
 31
0.0
  0
LINE
  5
50
  8
PATTERN_FILL
  6
CONTINUOUS
 62
     7
 10
357.75578801812651
 20
358.75578801812651
 30
0.0
 11
340.42608695652177
 21
341.42608695652177
 31
0.0
  0
LINE
  5
51
  8
PATTERN_FILL
  6
CONTINUOUS
 62
     7
 10
360.59285590526252
 20
358.79285590526251
 30
0.0
 11
340.304347826087
 21
338.50434782608693
 31
0.0
  0
LINE
  5
52
  8
PATTERN_FILL
  6
CONTINUOUS
 62
     7
 10
363.39841463566199
 20
358.79841463566208
 30
0.0
 11
340.18260869565222
 21
335.5826086956522
 31
0.0
  0
LINE
  5
53
  8
PATTERN_FILL
  6
CONTINUOUS
 62
     7
 10
366.17349332715958
 20
358.77349332715971
 30
0.0
 11
340.06086956521727
 21
332.6608695652173
 31
0.0
  0
LINE
  5
54
  8
PATTERN_FILL
  6
CONTINUOUS
 62
     7
 10
368.91905585179359
 20
358.7190558517936
 30
0.0
 11
339.93913043478261
 21
329.73913043478262
 31
0.0
  0
LINE
  5
55
  8
PATTERN_FILL
  6
CONTINUOUS
 62
     7
 10
371.63600643693889
 20
358.63600643693889
 30
0.0
 11
339.81739130434778
 21
326.81739130434778
 31
0.0
  0
LINE
  5
56
  8
PATTERN_FILL
  6
CONTINUOUS
 62
     7
 10
374.32519465830597
 20
358.52519465830602
 30
0.0
 11
339.695652173913
 21
323.89565217391311
 31
0.0
  0
LINE
  5
57
  8
PATTERN_FILL
  6
CONTINUOUS
 62
     7
 10
376.98741990372167
 20
358.38741990372171
 30
0.0
 11
339.57391304347823
 21
320.97391304347832
 31
0.0
  0
LINE
  5
58
  8
PATTERN_FILL
  6
CONTINUOUS
 62
     7
 10
379.62343537476897
 20
358.223435374769
 30
0.0
 11
339.45217391304351
 21
318.05217391304348
 31
0.0
  0
LINE
  5
59
  8
PATTERN_FILL
  6
CONTINUOUS
 62
     7
 10
382.23395168352403
 20
358.03395168352398
 30
0.0
 11
339.33043478260868
 21
315.1304347826088
 31
0.0
  0
LINE
  5
5A
  8
PATTERN_FILL
  6
CONTINUOUS
 62
     7
 10
383.91777316899203
 20
356.91777316899203
 30
0.0
 11
339.2086956521739
 21
312.20869565217401
 31
0.0
  0
LINE
  5
5B
  8
PATTERN_FILL
  6
CONTINUOUS
 62
     7
 10
384.04000000000008
 20
354.24000000000001
 30
0.0
 11
339.08695652173918
 21
309.28695652173923
 31
0.0
  0
LINE
  5
5C
  8
PATTERN_FILL
  6
CONTINUOUS
 62
     7
 10
384.15199999999999
 20
351.55200000000002
 30
0.0
 11
338.96521739130429
 21
306.36521739130438
 31
0.0
  0
LINE
  5
5D
  8
PATTERN_FILL
  6
CONTINUOUS
 62
     7
 10
384.26400000000001
 20
348.86400000000009
 30
0.0
 11
338.84347826086957
 21
303.44347826086971
 31
0.0
  0
LINE
  5
5E
  8
PATTERN_FILL
  6
CONTINUOUS
 62
     7
 10
384.37599999999998
 20
346.17599999999999
 30
0.0
 11
338.7217391304348
 21
300.52173913043481
 31
0.0
  0
LINE
  5
5F
  8
PATTERN_FILL
  6
CONTINUOUS
 62
     7
 10
384.488
 20
343.48800000000011
 30
0.0
 11
340.85553326272202
 21
299.85553326272202
 31
0.0
  0
LINE
  5
60
  8
PATTERN_FILL
  6
CONTINUOUS
 62
     7
 10
384.60000000000002
 20
340.80000000000013
 30
0.0
 11
343.4844186480293
 21
299.68441864802941
 31
0.0
  0
LINE
  5
61
  8
PATTERN_FILL
  6
CONTINUOUS
 62
     7
 10
384.71199999999999
 20
338.11200000000002
 30
0.0
 11
346.13440188432821
 21
299.53440188432808
 31
0.0
  0
LINE
  5
62
  8
PATTERN_FILL
  6
CONTINUOUS
 62
     7
 10
384.82400000000001
 20
335.42400000000009
 30
0.0
 11
348.80596775800382
 21
299.40596775800378
 31
0.0
  0
LINE
  5
63
  8
PATTERN_FILL
  6
CONTINUOUS
 62
     7
 10
384.93599999999998
 20
332.7360000000001
 30
0.0
 11
351.49962478865729
 21
299.29962478865741
 31
0.0
  0
LINE
  5
64
  8
PATTERN_FILL
  6
CONTINUOUS
 62
     7
 10
385.048
 20
330.04800000000012
 30
0.0
 11
354.21590686059869
 21
299.21590686059881
 31
0.0
  0
LINE
  5
65
  8
PATTERN_FILL
  6
CONTINUOUS
 62
     7
 10
385.16000000000003
 20
327.36000000000001
 30
0.0
 11
356.9553750030932
 21
299.1553750030933
 31
0.0
  0
LINE
  5
66
  8
PATTERN_FILL
  6
CONTINUOUS
 62
     7
 10
385.27200000000011
 20
324.67200000000008
 30
0.0
 11
359.71861933630959
 21
299.11861933630962
 31
0.0
  0
LINE
  5
67
  8
PATTERN_FILL
  6
CONTINUOUS
 62
     7
 10
385.38400000000001
 20
321.98400000000009
 30
0.0
 11
362.5
 21
299.10000000000002
 31
0.0
  0
LINE
  5
68
  8
PATTERN_FILL
  6
CONTINUOUS
 62
     7
 10
385.49599999999998
 20
319.29600000000011
 30
0.0
 11
365.31895550268581
 21
299.11895550268588
 31
0.0
  0
LINE
  5
69
  8
PATTERN_FILL
  6
CONTINUOUS
 62
     7
 10
385.60800000000012
 20
316.60800000000012
 30
0.0
 11
368.1573932691777
 21
299.1573932691777
 31
0.0
  0
LINE
  5
6A
  8
PATTERN_FILL
  6
CONTINUOUS
 62
     7
 10
385.72000000000003
 20
313.92000000000007
 30
0.0
 11
371.02230449418551
 21
299.22230449418572
 31
0.0
  0
LINE
  5
6B
  8
PATTERN_FILL
  6
CONTINUOUS
 62
     7
 10
385.83199999999999
 20
311.23200000000008
 30
0.0
 11
373.91446125634093
 21
299.31446125634119
 31
0.0
  0
LINE
  5
6C
  8
PATTERN_FILL
  6
CONTINUOUS
 62
     7
 10
385.94400000000002
 20
308.5440000000001
 30
0.0
 11
376.83468117829648
 21
299.43468117829661
 31
0.0
  0
LINE
  5
6D
  8
PATTERN_FILL
  6
CONTINUOUS
 62
     7
 10
386.05599999999998
 20
305.85599999999999
 30
0.0
 11
379.78383126151141
 21
299.58383126151142
 31
0.0
  0
LINE
  5
6E
  8
PATTERN_FILL
  6
CONTINUOUS
 62
     7
 10
386.16800000000001
 20
303.16800000000001
 30
0.0
 11
382.7628321495535
 21
299.7628321495535
 31
0.0
  0
LINE
  5
6F
  8
PATTERN_FILL
  6
CONTINUOUS
 62
     7
 10
380.86318746925252
 20
358.13681253074759
 30
0.0
 11
384.00869565217403
 21
354.99130434782609
 31
0.0
  0
LINE
  5
70
  8
PATTERN_FILL
  6
CONTINUOUS
 62
     7
 10
377.86406908581313
 20
358.33593091418692
 30
0.0
 11
384.1304347826088
 21
352.0695652173913
 31
0.0
  0
LINE
  5
71
  8
PATTERN_FILL
  6
CONTINUOUS
 62
     7
 10
374.90229879734289
 20
358.4977012026572
 30
0.0
 11
384.25217391304352
 21
349.1478260869564
 31
0.0
  0
LINE
  5
72
  8
PATTERN_FILL
  6
CONTINUOUS
 62
     7
 10
371.97644760446792
 20
358.62355239553222
 30
0.0
 11
384.3739130434783
 21
346.22608695652178
 31
0.0
  0
LINE
  5
73
  8
PATTERN_FILL
  6
CONTINUOUS
 62
     7
 10
369.08518894717253
 20
358.71481105282749
 30
0.0
 11
384.49565217391302
 21
343.304347826087
 31
0.0
  0
LINE
  5
74
  8
PATTERN_FILL
  6
CONTINUOUS
 62
     7
 10
366.22728873780289
 20
358.77271126219711
 30
0.0
 11
384.6173913043479
 21
340.3826086956521
 31
0.0
  0
LINE
  5
75
  8
PATTERN_FILL
  6
CONTINUOUS
 62
     7
 10
363.40159661425412
 20
358.79840338574598
 30
0.0
 11
384.73913043478262
 21
337.46086956521742
 31
0.0
  0
LINE
  5
76
  8
PATTERN_FILL
  6
CONTINUOUS
 62
     7
 10
360.6070382353256
 20
358.79296176467437
 30
0.0
 11
384.8608695652174
 21
334.53913043478258
 31
0.0
  0
LINE
  5
77
  8
PATTERN_FILL
  6
CONTINUOUS
 62
     7
 10
357.84260847016139
 20
358.75739152983863
 30
0.0
 11
384.98260869565217
 21
331.61739130434779
 31
0.0
  0
LINE
  5
78
  8
PATTERN_FILL
  6
CONTINUOUS
 62
     7
 10
355.10736535796229
 20
358.69263464203772
 30
0.0
 11
385.10434782608701
 21
328.695652173913
 31
0.0
  0
LINE
  5
79
  8
PATTERN_FILL
  6
CONTINUOUS
 62
     7
 10
352.40042473394379
 20
358.59957526605621
 30
0.0
 11
385.22608695652173
 21
325.77391304347822
 31
0.0
  0
LINE
  5
7A
  8
PATTERN_FILL
  6
CONTINUOUS
 62
     7
 10
349.72095543373939
 20
358.47904456626048
 30
0.0
 11
385.3478260869565
 21
322.8521739130436
 31
0.0
  0
LINE
  5
7B
  8
PATTERN_FILL
  6
CONTINUOUS
 62
     7
 10
347.06817500182251
 20
358.33182499817752
 30
0.0
 11
385.46956521739128
 21
319.9304347826087
 31
0.0
  0
LINE
  5
7C
  8
PATTERN_FILL
  6
CONTINUOUS
 62
     7
 10
344.44134584058708
 20
358.15865415941289
 30
0.0
 11
385.59130434782622
 21
317.00869565217391
 31
0.0
  0
LINE
  5
7D
  8
PATTERN_FILL
  6
CONTINUOUS
 62
     7
 10
341.89078552609021
 20
357.90921447390991
 30
0.0
 11
385.71304347826089
 21
314.08695652173918
 31
0.0
  0
LINE
  5
7E
  8
PATTERN_FILL
  6
CONTINUOUS
 62
     7
 10
341.0320000000001
 20
355.96800000000007
 30
0.0
 11
385.83478260869572
 21
311.16521739130428
 31
0.0
  0
LINE
  5
7F
  8
PATTERN_FILL
  6
CONTINUOUS
 62
     7
 10
340.92000000000002
 20
353.28000000000009
 30
0.0
 11
385.95652173913049
 21
308.24347826086961
 31
0.0
  0
LINE
  5
80
  8
PATTERN_FILL
  6
CONTINUOUS
 62
     7
 10
340.80799999999999
 20
350.5920000000001
 30
0.0
 11
386.07826086956521
 21
305.32173913043482
 31
0.0
  0
LINE
  5
81
  8
PATTERN_FILL
  6
CONTINUOUS
 62
     7
 10
340.69600000000008
 20
347.904
 30
0.0
 11
386.2000000000001
 21
302.40000000000009
 31
0.0
  0
LINE
  5
82
  8
PATTERN_FILL
  6
CONTINUOUS
 62
     7
 10
340.58400000000012
 20
345.21600000000001
 30
0.0
 11
385.82353958623662
 21
299.97646041376339
 31
0.0
  0
LINE
  5
83
  8
PATTERN_FILL
  6
CONTINUOUS
 62
     7
 10
340.47199999999998
 20
342.52800000000002
 30
0.0
 11
383.20797151062118
 21
299.79202848937882
 31
0.0
  0
LINE
  5
84
  8
PATTERN_FILL
  6
CONTINUOUS
 62
     7
 10
340.36000000000001
 20
339.84000000000009
 30
0.0
 11
380.57160540167581
 21
299.62839459832418
 31
0.0
  0
LINE
  5
85
  8
PATTERN_FILL
  6
CONTINUOUS
 62
     7
 10
340.2480000000001
 20
337.1520000000001
 30
0.0
 11
377.91397093137152
 21
299.48602906862862
 31
0.0
  0
LINE
  5
86
  8
PATTERN_FILL
  6
CONTINUOUS
 62
     7
 10
340.13600000000002
 20
334.464
 30
0.0
 11
375.23457501575308
 21
299.365424984247
 31
0.0
  0
LINE
  5
87
  8
PATTERN_FILL
  6
CONTINUOUS
 62
     7
 10
340.024
 20
331.77600000000012
 30
0.0
 11
372.53290027107118
 21
299.26709972892888
 31
0.0
  0
LINE
  5
88
  8
PATTERN_FILL
  6
CONTINUOUS
 62
     7
 10
339.91200000000009
 20
329.08800000000002
 30
0.0
 11
369.80840333097581
 21
299.19159666902431
 31
0.0
  0
LINE
  5
89
  8
PATTERN_FILL
  6
CONTINUOUS
 62
     7
 10
339.80000000000013
 20
326.40000000000009
 30
0.0
 11
367.06051300914982
 21
299.1394869908504
 31
0.0
  0
LINE
  5
8A
  8
PATTERN_FILL
  6
CONTINUOUS
 62
     7
 10
339.68799999999999
 20
323.7120000000001
 30
0.0
 11
364.28862828964083
 21
299.11137171035921
 31
0.0
  0
LINE
  5
8B
  8
PATTERN_FILL
  6
CONTINUOUS
 62
     7
 10
339.57600000000002
 20
321.02400000000011
 30
0.0
 11
361.492116124684
 21
299.10788387531602
 31
0.0
  0
LINE
  5
8C
  8
PATTERN_FILL
  6
CONTINUOUS
 62
     7
 10
339.46400000000011
 20
318.33600000000013
 30
0.0
 11
358.67030901694619
 21
299.12969098305382
 31
0.0
  0
LINE
  5
8D
  8
PATTERN_FILL
  6
CONTINUOUS
 62
     7
 10
339.35199999999998
 20
315.64800000000002
 30
0.0
 11
355.8225023597721
 21
299.1774976402279
 31
0.0
  0
LINE
  5
8E
  8
PATTERN_FILL
  6
CONTINUOUS
 62
     7
 10
339.24000000000001
 20
312.96000000000009
 30
0.0
 11
352.9479515050952
 21
299.25204849490478
 31
0.0
  0
LINE
  5
8F
  8
PATTERN_FILL
  6
CONTINUOUS
 62
     7
 10
339.1280000000001
 20
310.27200000000011
 30
0.0
 11
350.0458685240709
 21
299.35413147592919
 31
0.0
  0
LINE
  5
90
  8
PATTERN_FILL
  6
CONTINUOUS
 62
     7
 10
339.01600000000002
 20
307.58400000000012
 30
0.0
 11
347.11541862004958
 21
299.48458137995038
 31
0.0
  0
LINE
  5
91
  8
PATTERN_FILL
  6
CONTINUOUS
 62
     7
 10
338.904
 20
304.89600000000007
 30
0.0
 11
344.15571614708517
 21
299.6442838529149
 31
0.0
  0
LINE
  5
92
  8
PATTERN_FILL
  6
CONTINUOUS
 62
     7
 10
338.79200000000009
 20
302.20800000000008
 30
0.0
 11
341.16582017950913
 21
299.83417982049099
 31
0.0
  0
LINE
  5
93
  8
PATTERN_FILL
  6
CONTINUOUS
 62
     7
 10
130.55635758751509
 20
358.05635758751521
 30
0.0
 11
128.53478260869559
 21
356.03478260869559
 31
0.0
  0
LINE
  5
94
  8
PATTERN_FILL
  6
CONTINUOUS
 62
     7
 10
133.56918218499601
 20
358.26918218499611
 30
0.0
 11
128.41304347826079
 21
353.11304347826092
 31
0.0
  0
LINE
  5
95
  8
PATTERN_FILL
  6
CONTINUOUS
 62
     7
 10
136.54412138254199
 20
358.44412138254199
 30
0.0
 11
128.29130434782601
 21
350.19130434782608
 31
0.0
  0
LINE
  5
96
  8
PATTERN_FILL
  6
CONTINUOUS
 62
     7
 10
139.48264344631761
 20
358.5826434463176
 30
0.0
 11
128.16956521739129
 21
347.26956521739129
 31
0.0
  0
LINE
  5
97
  8
PATTERN_FILL
  6
CONTINUOUS
 62
     7
 10
142.38611030812311
 20
358.68611030812309
 30
0.0
 11
128.04782608695649
 21
344.3478260869565
 31
0.0
  0
LINE
  5
98
  8
PATTERN_FILL
  6
CONTINUOUS
 62
     7
 10
145.25578801812651
 20
358.75578801812651
 30
0.0
 11
127.9260869565217
 21
341.42608695652177
 31
0.0
  0
LINE
  5
99
  8
PATTERN_FILL
  6
CONTINUOUS
 62
     7
 10
148.0928559052625
 20
358.79285590526251
 30
0.0
 11
127.8043478260869
 21
338.50434782608693
 31
0.0
  0
LINE
  5
9A
  8
PATTERN_FILL
  6
CONTINUOUS
 62
     7
 10
150.89841463566199
 20
358.79841463566208
 30
0.0
 11
127.68260869565211
 21
335.5826086956522
 31
0.0
  0
LINE
  5
9B
  8
PATTERN_FILL
  6
CONTINUOUS
 62
     7
 10
153.6734933271596
 20
358.77349332715971
 30
0.0
 11
127.5608695652173
 21
332.6608695652173
 31
0.0
  0
LINE
  5
9C
  8
PATTERN_FILL
  6
CONTINUOUS
 62
     7
 10
156.4190558517937
 20
358.7190558517936
 30
0.0
 11
127.4391304347826
 21
329.73913043478262
 31
0.0
  0
LINE
  5
9D
  8
PATTERN_FILL
  6
CONTINUOUS
 62
     7
 10
159.13600643693891
 20
358.63600643693889
 30
0.0
 11
127.31739130434779
 21
326.81739130434778
 31
0.0
  0
LINE
  5
9E
  8
PATTERN_FILL
  6
CONTINUOUS
 62
     7
 10
161.82519465830589
 20
358.52519465830602
 30
0.0
 11
127.195652173913
 21
323.89565217391311
 31
0.0
  0
LINE
  5
9F
  8
PATTERN_FILL
  6
CONTINUOUS
 62
     7
 10
164.4874199037217
 20
358.38741990372171
 30
0.0
 11
127.0739130434782
 21
320.97391304347832
 31
0.0
  0
LINE
  5
A0
  8
PATTERN_FILL
  6
CONTINUOUS
 62
     7
 10
167.123435374769
 20
358.223435374769
 30
0.0
 11
126.9521739130434
 21
318.05217391304348
 31
0.0
  0
LINE
  5
A1
  8
PATTERN_FILL
  6
CONTINUOUS
 62
     7
 10
169.73395168352391
 20
358.03395168352398
 30
0.0
 11
126.83043478260871
 21
315.1304347826088
 31
0.0
  0
LINE
  5
A2
  8
PATTERN_FILL
  6
CONTINUOUS
 62
     7
 10
171.417773168992
 20
356.91777316899203
 30
0.0
 11
126.7086956521739
 21
312.20869565217401
 31
0.0
  0
LINE
  5
A3
  8
PATTERN_FILL
  6
CONTINUOUS
 62
     7
 10
171.53999999999999
 20
354.24000000000001
 30
0.0
 11
126.5869565217391
 21
309.28695652173923
 31
0.0
  0
LINE
  5
A4
  8
PATTERN_FILL
  6
CONTINUOUS
 62
     7
 10
171.65199999999999
 20
351.55200000000002
 30
0.0
 11
126.46521739130429
 21
306.36521739130438
 31
0.0
  0
LINE
  5
A5
  8
PATTERN_FILL
  6
CONTINUOUS
 62
     7
 10
171.76400000000001
 20
348.86400000000009
 30
0.0
 11
126.3434782608695
 21
303.44347826086971
 31
0.0
  0
LINE
  5
A6
  8
PATTERN_FILL
  6
CONTINUOUS
 62
     7
 10
171.876
 20
346.17599999999999
 30
0.0
 11
126.2217391304348
 21
300.52173913043481
 31
0.0
  0
LINE
  5
A7
  8
PATTERN_FILL
  6
CONTINUOUS
 62
     7
 10
171.988
 20
343.48800000000011
 30
0.0
 11
128.35553326272199
 21
299.85553326272202
 31
0.0
  0
LINE
  5
A8
  8
PATTERN_FILL
  6
CONTINUOUS
 62
     7
 10
172.09999999999999
 20
340.80000000000013
 30
0.0
 11
130.98441864802919
 21
299.68441864802941
 31
0.0
  0
LINE
  5
A9
  8
PATTERN_FILL
  6
CONTINUOUS
 62
     7
 10
172.21199999999999
 20
338.11200000000002
 30
0.0
 11
133.63440188432801
 21
299.53440188432808
 31
0.0
  0
LINE
  5
AA
  8
PATTERN_FILL
  6
CONTINUOUS
 62
     7
 10
172.3239999999999
 20
335.42400000000009
 30
0.0
 11
136.3059677580037
 21
299.40596775800378
 31
0.0
  0
LINE
  5
AB
  8
PATTERN_FILL
  6
CONTINUOUS
 62
     7
 10
172.43600000000001
 20
332.7360000000001
 30
0.0
 11
138.99962478865729
 21
299.29962478865741
 31
0.0
  0
LINE
  5
AC
  8
PATTERN_FILL
  6
CONTINUOUS
 62
     7
 10
172.548
 20
330.04800000000012
 30
0.0
 11
141.71590686059869
 21
299.21590686059881
 31
0.0
  0
LINE
  5
AD
  8
PATTERN_FILL
  6
CONTINUOUS
 62
     7
 10
172.66
 20
327.36000000000001
 30
0.0
 11
144.45537500309311
 21
299.1553750030933
 31
0.0
  0
LINE
  5
AE
  8
PATTERN_FILL
  6
CONTINUOUS
 62
     7
 10
172.77199999999999
 20
324.67200000000008
 30
0.0
 11
147.21861933630959
 21
299.11861933630962
 31
0.0
  0
LINE
  5
AF
  8
PATTERN_FILL
  6
CONTINUOUS
 62
     7
 10
172.88399999999999
 20
321.98400000000009
 30
0.0
 11
150.0
 21
299.10000000000002
 31
0.0
  0
LINE
  5
B0
  8
PATTERN_FILL
  6
CONTINUOUS
 62
     7
 10
172.99600000000001
 20
319.29600000000011
 30
0.0
 11
152.81895550268581
 21
299.11895550268588
 31
0.0
  0
LINE
  5
B1
  8
PATTERN_FILL
  6
CONTINUOUS
 62
     7
 10
173.108
 20
316.60800000000012
 30
0.0
 11
155.65739326917759
 21
299.1573932691777
 31
0.0
  0
LINE
  5
B2
  8
PATTERN_FILL
  6
CONTINUOUS
 62
     7
 10
173.22
 20
313.92000000000007
 30
0.0
 11
158.52230449418551
 21
299.22230449418572
 31
0.0
  0
LINE
  5
B3
  8
PATTERN_FILL
  6
CONTINUOUS
 62
     7
 10
173.33199999999991
 20
311.23200000000008
 30
0.0
 11
161.4144612563411
 21
299.31446125634119
 31
0.0
  0
LINE
  5
B4
  8
PATTERN_FILL
  6
CONTINUOUS
 62
     7
 10
173.44399999999999
 20
308.5440000000001
 30
0.0
 11
164.33468117829639
 21
299.43468117829661
 31
0.0
  0
LINE
  5
B5
  8
PATTERN_FILL
  6
CONTINUOUS
 62
     7
 10
173.55600000000001
 20
305.85599999999999
 30
0.0
 11
167.28383126151141
 21
299.58383126151142
 31
0.0
  0
LINE
  5
B6
  8
PATTERN_FILL
  6
CONTINUOUS
 62
     7
 10
173.66799999999989
 20
303.16800000000001
 30
0.0
 11
170.2628321495535
 21
299.7628321495535
 31
0.0
  0
LINE
  5
B7
  8
PATTERN_FILL
  6
CONTINUOUS
 62
     7
 10
168.36318746925241
 20
358.13681253074759
 30
0.0
 11
171.50869565217391
 21
354.99130434782609
 31
0.0
  0
LINE
  5
B8
  8
PATTERN_FILL
  6
CONTINUOUS
 62
     7
 10
165.36406908581299
 20
358.33593091418692
 30
0.0
 11
171.63043478260869
 21
352.0695652173913
 31
0.0
  0
LINE
  5
B9
  8
PATTERN_FILL
  6
CONTINUOUS
 62
     7
 10
162.40229879734281
 20
358.4977012026572
 30
0.0
 11
171.75217391304341
 21
349.1478260869564
 31
0.0
  0
LINE
  5
BA
  8
PATTERN_FILL
  6
CONTINUOUS
 62
     7
 10
159.47644760446781
 20
358.62355239553222
 30
0.0
 11
171.8739130434783
 21
346.22608695652178
 31
0.0
  0
LINE
  5
BB
  8
PATTERN_FILL
  6
CONTINUOUS
 62
     7
 10
156.5851889471725
 20
358.71481105282749
 30
0.0
 11
171.99565217391299
 21
343.304347826087
 31
0.0
  0
LINE
  5
BC
  8
PATTERN_FILL
  6
CONTINUOUS
 62
     7
 10
153.72728873780281
 20
358.77271126219711
 30
0.0
 11
172.11739130434779
 21
340.3826086956521
 31
0.0
  0
LINE
  5
BD
  8
PATTERN_FILL
  6
CONTINUOUS
 62
     7
 10
150.901596614254
 20
358.79840338574598
 30
0.0
 11
172.2391304347826
 21
337.46086956521742
 31
0.0
  0
LINE
  5
BE
  8
PATTERN_FILL
  6
CONTINUOUS
 62
     7
 10
148.1070382353256
 20
358.79296176467437
 30
0.0
 11
172.3608695652174
 21
334.53913043478258
 31
0.0
  0
LINE
  5
BF
  8
PATTERN_FILL
  6
CONTINUOUS
 62
     7
 10
145.34260847016139
 20
358.75739152983863
 30
0.0
 11
172.4826086956522
 21
331.61739130434779
 31
0.0
  0
LINE
  5
C0
  8
PATTERN_FILL
  6
CONTINUOUS
 62
     7
 10
142.60736535796241
 20
358.69263464203772
 30
0.0
 11
172.60434782608689
 21
328.695652173913
 31
0.0
  0
LINE
  5
C1
  8
PATTERN_FILL
  6
CONTINUOUS
 62
     7
 10
139.90042473394371
 20
358.59957526605621
 30
0.0
 11
172.7260869565217
 21
325.77391304347822
 31
0.0
  0
LINE
  5
C2
  8
PATTERN_FILL
  6
CONTINUOUS
 62
     7
 10
137.2209554337395
 20
358.47904456626048
 30
0.0
 11
172.8478260869565
 21
322.8521739130436
 31
0.0
  0
LINE
  5
C3
  8
PATTERN_FILL
  6
CONTINUOUS
 62
     7
 10
134.56817500182251
 20
358.33182499817752
 30
0.0
 11
172.96956521739131
 21
319.9304347826087
 31
0.0
  0
LINE
  5
C4
  8
PATTERN_FILL
  6
CONTINUOUS
 62
     7
 10
131.94134584058699
 20
358.15865415941289
 30
0.0
 11
173.09130434782611
 21
317.00869565217391
 31
0.0
  0
LINE
  5
C5
  8
PATTERN_FILL
  6
CONTINUOUS
 62
     7
 10
129.39078552609021
 20
357.90921447390991
 30
0.0
 11
173.21304347826089
 21
314.08695652173918
 31
0.0
  0
LINE
  5
C6
  8
PATTERN_FILL
  6
CONTINUOUS
 62
     7
 10
128.53200000000001
 20
355.96800000000007
 30
0.0
 11
173.3347826086956
 21
311.16521739130428
 31
0.0
  0
LINE
  5
C7
  8
PATTERN_FILL
  6
CONTINUOUS
 62
     7
 10
128.41999999999999
 20
353.28000000000009
 30
0.0
 11
173.45652173913041
 21
308.24347826086961
 31
0.0
  0
LINE
  5
C8
  8
PATTERN_FILL
  6
CONTINUOUS
 62
     7
 10
128.30799999999999
 20
350.5920000000001
 30
0.0
 11
173.57826086956521
 21
305.32173913043482
 31
0.0
  0
LINE
  5
C9
  8
PATTERN_FILL
  6
CONTINUOUS
 62
     7
 10
128.196
 20
347.904
 30
0.0
 11
173.69999999999999
 21
302.40000000000009
 31
0.0
  0
LINE
  5
CA
  8
PATTERN_FILL
  6
CONTINUOUS
 62
     7
 10
128.084
 20
345.21600000000001
 30
0.0
 11
173.32353958623659
 21
299.97646041376339
 31
0.0
  0
LINE
  5
CB
  8
PATTERN_FILL
  6
CONTINUOUS
 62
     7
 10
127.97199999999999
 20
342.52800000000002
 30
0.0
 11
170.70797151062109
 21
299.79202848937882
 31
0.0
  0
LINE
  5
CC
  8
PATTERN_FILL
  6
CONTINUOUS
 62
     7
 10
127.86
 20
339.84000000000009
 30
0.0
 11
168.0716054016757
 21
299.62839459832418
 31
0.0
  0
LINE
  5
CD
  8
PATTERN_FILL
  6
CONTINUOUS
 62
     7
 10
127.748
 20
337.1520000000001
 30
0.0
 11
165.41397093137141
 21
299.48602906862862
 31
0.0
  0
LINE
  5
CE
  8
PATTERN_FILL
  6
CONTINUOUS
 62
     7
 10
127.636
 20
334.464
 30
0.0
 11
162.73457501575299
 21
299.365424984247
 31
0.0
  0
LINE
  5
CF
  8
PATTERN_FILL
  6
CONTINUOUS
 62
     7
 10
127.524
 20
331.77600000000012
 30
0.0
 11
160.0329002710711
 21
299.26709972892888
 31
0.0
  0
LINE
  5
D0
  8
PATTERN_FILL
  6
CONTINUOUS
 62
     7
 10
127.41200000000001
 20
329.08800000000002
 30
0.0
 11
157.30840333097569
 21
299.19159666902431
 31
0.0
  0
LINE
  5
D1
  8
PATTERN_FILL
  6
CONTINUOUS
 62
     7
 10
127.3
 20
326.40000000000009
 30
0.0
 11
154.5605130091497
 21
299.1394869908504
 31
0.0
  0
LINE
  5
D2
  8
PATTERN_FILL
  6
CONTINUOUS
 62
     7
 10
127.188
 20
323.7120000000001
 30
0.0
 11
151.7886282896408
 21
299.11137171035921
 31
0.0
  0
LINE
  5
D3
  8
PATTERN_FILL
  6
CONTINUOUS
 62
     7
 10
127.07599999999999
 20
321.02400000000011
 30
0.0
 11
148.992116124684
 21
299.10788387531602
 31
0.0
  0
LINE
  5
D4
  8
PATTERN_FILL
  6
CONTINUOUS
 62
     7
 10
126.964
 20
318.33600000000013
 30
0.0
 11
146.17030901694619
 21
299.12969098305382
 31
0.0
  0
LINE
  5
D5
  8
PATTERN_FILL
  6
CONTINUOUS
 62
     7
 10
126.852
 20
315.64800000000002
 30
0.0
 11
143.3225023597721
 21
299.1774976402279
 31
0.0
  0
LINE
  5
D6
  8
PATTERN_FILL
  6
CONTINUOUS
 62
     7
 10
126.73999999999999
 20
312.96000000000009
 30
0.0
 11
140.4479515050952
 21
299.25204849490478
 31
0.0
  0
LINE
  5
D7
  8
PATTERN_FILL
  6
CONTINUOUS
 62
     7
 10
126.628
 20
310.27200000000011
 30
0.0
 11
137.5458685240707
 21
299.35413147592919
 31
0.0
  0
LINE
  5
D8
  8
PATTERN_FILL
  6
CONTINUOUS
 62
     7
 10
126.51600000000001
 20
307.58400000000012
 30
0.0
 11
134.6154186200495
 21
299.48458137995038
 31
0.0
  0
LINE
  5
D9
  8
PATTERN_FILL
  6
CONTINUOUS
 62
     7
 10
126.404
 20
304.89600000000007
 30
0.0
 11
131.65571614708509
 21
299.6442838529149
 31
0.0
  0
LINE
  5
DA
  8
PATTERN_FILL
  6
CONTINUOUS
 62
     7
 10
126.292
 20
302.20800000000008
 30
0.0
 11
128.66582017950901
 21
299.83417982049099
 31
0.0
  0
LINE
  5
DB
  8
PATTERN_FILL
  6
CONTINUOUS
 62
     7
 10
233.2855304009409
 20
358.80000000000001
 30
0.0
 11
229.7916546941604
 21
355.30612429321963
 31
0.0
  0
LINE
  5
DC
  8
PATTERN_FILL
  6
CONTINUOUS
 62
     7
 10
236.08553040094091
 20
358.80000000000001
 30
0.0
 11
229.61409832268879
 21
352.328567921748
 31
0.0
  0
LINE
  5
DD
  8
PATTERN_FILL
  6
CONTINUOUS
 62
     7
 10
238.45432628474649
 20
358.36879588380572
 30
0.0
 11
229.43654195121721
 21
349.35101155027638
 31
0.0
  0
LINE
  5
DE
  8
PATTERN_FILL
  6
CONTINUOUS
 62
     7
 10
238.37366784853251
 20
355.48813744759173
 30
0.0
 11
229.25898557974551
 21
346.37345517880459
 31
0.0
  0
LINE
  5
DF
  8
PATTERN_FILL
  6
CONTINUOUS
 62
     7
 10
238.29300941231861
 20
352.60747901137768
 30
0.0
 11
229.0814292082739
 21
343.39589880733308
 31
0.0
  0
LINE
  5
E0
  8
PATTERN_FILL
  6
CONTINUOUS
 62
     7
 10
238.21235097610449
 20
349.72682057516357
 30
0.0
 11
228.90387283680229
 21
340.4183424358614
 31
0.0
  0
LINE
  5
E1
  8
PATTERN_FILL
  6
CONTINUOUS
 62
     7
 10
250.08553040094091
 20
358.80000000000001
 30
0.0
 11
249.54863312376099
 21
358.26310272282012
 31
0.0
  0
LINE
  5
E2
  8
PATTERN_FILL
  6
CONTINUOUS
 62
     7
 10
238.13169253989051
 20
346.84616213894958
 30
0.0
 11
228.7263164653306
 21
337.44078606438978
 31
0.0
  0
LINE
  5
E3
  8
PATTERN_FILL
  6
CONTINUOUS
 62
     7
 10
252.88553040094089
 20
358.80000000000001
 30
0.0
 11
249.62489771520069
 21
355.53936731425978
 31
0.0
  0
LINE
  5
E4
  8
PATTERN_FILL
  6
CONTINUOUS
 62
     7
 10
238.07644185109001
 20
343.9909114501491
 30
0.0
 11
228.54876009385899
 21
334.46322969291822
 31
0.0
  0
LINE
  5
E5
  8
PATTERN_FILL
  6
CONTINUOUS
 62
     7
 10
255.68553040094079
 20
358.80000000000001
 30
0.0
 11
249.70116230664041
 21
352.8156319056996
 31
0.0
  0
LINE
  5
E6
  8
PATTERN_FILL
  6
CONTINUOUS
 62
     7
 10
237.9703756674626
 20
341.08484526652171
 30
0.0
 11
228.37120372238741
 21
331.48567332144648
 31
0.0
  0
LINE
  5
E7
  8
PATTERN_FILL
  6
CONTINUOUS
 62
     7
 10
257.70269324331503
 20
358.01716284237409
 30
0.0
 11
249.77742689808011
 21
350.0918964971392
 31
0.0
  0
LINE
  5
E8
  8
PATTERN_FILL
  6
CONTINUOUS
 62
     7
 10
237.8897172312486
 20
338.20418683030772
 30
0.0
 11
228.1936473509158
 21
328.50811694997492
 31
0.0
  0
LINE
  5
E9
  8
PATTERN_FILL
  6
CONTINUOUS
 62
     7
 10
258.18489572445719
 20
355.69936532351642
 30
0.0
 11
249.8536914895198
 21
347.36816108857892
 31
0.0
  0
LINE
  5
EA
  8
PATTERN_FILL
  6
CONTINUOUS
 62
     7
 10
237.80905879503459
 20
335.32352839409373
 30
0.0
 11
228.0160909794441
 21
325.5305605785033
 31
0.0
  0
LINE
  5
EB
  8
PATTERN_FILL
  6
CONTINUOUS
 62
     7
 10
258.34246785598651
 20
353.05693745504561
 30
0.0
 11
249.9299560809595
 21
344.64442568001863
 31
0.0
  0
LINE
  5
EC
  8
PATTERN_FILL
  6
CONTINUOUS
 62
     7
 10
237.72840035882061
 20
332.44286995787968
 30
0.0
 11
227.83853460797241
 21
322.55300420703162
 31
0.0
  0
LINE
  5
ED
  8
PATTERN_FILL
  6
CONTINUOUS
 62
     7
 10
258.50003998751561
 20
350.41450958657481
 30
0.0
 11
250.00622067239919
 21
341.92069027145823
 31
0.0
  0
LINE
  5
EE
  8
PATTERN_FILL
  6
CONTINUOUS
 62
     7
 10
237.6477419226066
 20
329.5622115216658
 30
0.0
 11
227.6609782365008
 21
319.57544783556
 31
0.0
  0
LINE
  5
EF
  8
PATTERN_FILL
  6
CONTINUOUS
 62
     7
 10
258.65761211904493
 20
347.77208171810412
 30
0.0
 11
250.08248526383889
 21
339.196954862898
 31
0.0
  0
LINE
  5
F0
  8
PATTERN_FILL
  6
CONTINUOUS
 62
     7
 10
237.56708348639259
 20
326.68155308545181
 30
0.0
 11
227.4834218650293
 21
316.59789146408838
 31
0.0
  0
LINE
  5
F1
  8
PATTERN_FILL
  6
CONTINUOUS
 62
     7
 10
258.81518425057408
 20
345.1296538496332
 30
0.0
 11
250.1587498552785
 21
336.47321945433771
 31
0.0
  0
LINE
  5
F2
  8
PATTERN_FILL
  6
CONTINUOUS
 62
     7
 10
237.48642505017861
 20
323.80089464923782
 30
0.0
 11
227.3058654935576
 21
313.62033509261681
 31
0.0
  0
LINE
  5
F3
  8
PATTERN_FILL
  6
CONTINUOUS
 62
     7
 10
258.97275638210328
 20
342.48722598116251
 30
0.0
 11
250.2350144467182
 21
333.74948404577742
 31
0.0
  0
LINE
  5
F4
  8
PATTERN_FILL
  6
CONTINUOUS
 62
     7
 10
237.4057666139646
 20
320.92023621302383
 30
0.0
 11
227.12830912208599
 21
310.64277872114519
 31
0.0
  0
LINE
  5
F5
  8
PATTERN_FILL
  6
CONTINUOUS
 62
     7
 10
259.13032851363261
 20
339.84479811269159
 30
0.0
 11
250.31127903815789
 21
331.02574863721708
 31
0.0
  0
LINE
  5
F6
  8
PATTERN_FILL
  6
CONTINUOUS
 62
     7
 10
237.32510817775071
 20
318.03957777680978
 30
0.0
 11
226.95075275061441
 21
307.6652223496734
 31
0.0
  0
LINE
  5
F7
  8
PATTERN_FILL
  6
CONTINUOUS
 62
     7
 10
259.2879006451617
 20
337.2023702442209
 30
0.0
 11
250.38754362959759
 21
328.30201322865679
 31
0.0
  0
LINE
  5
F8
  8
PATTERN_FILL
  6
CONTINUOUS
 62
     7
 10
237.2444497415367
 20
315.15891934059579
 30
0.0
 11
226.77319637914269
 21
304.68766597820189
 31
0.0
  0
LINE
  5
F9
  8
PATTERN_FILL
  6
CONTINUOUS
 62
     7
 10
259.44547277669102
 20
334.5599423757501
 30
0.0
 11
250.46380822103731
 21
325.5782778200965
 31
0.0
  0
LINE
  5
FA
  8
PATTERN_FILL
  6
CONTINUOUS
 62
     7
 10
237.16379130532269
 20
312.27826090438202
 30
0.0
 11
226.59564000767111
 21
301.71010960673021
 31
0.0
  0
LINE
  5
FB
  8
PATTERN_FILL
  6
CONTINUOUS
 62
     7
 10
259.60304490822023
 20
331.91751450727929
 30
0.0
 11
250.54007281247701
 21
322.8545424115361
 31
0.0
  0
LINE
  5
FC
  8
PATTERN_FILL
  6
CONTINUOUS
 62
     7
 10
237.08313286910879
 20
309.3976024681678
 30
0.0
 11
227.99335336465921
 21
300.30782296371819
 31
0.0
  0
LINE
  5
FD
  8
PATTERN_FILL
  6
CONTINUOUS
 62
     7
 10
259.76061703974938
 20
329.2750866388086
 30
0.0
 11
250.6163374039167
 21
320.13080700297581
 31
0.0
  0
LINE
  5
FE
  8
PATTERN_FILL
  6
CONTINUOUS
 62
     7
 10
237.0024744328947
 20
306.51694403195381
 30
0.0
 11
230.95893613379471
 21
300.47340573285368
 31
0.0
  0
LINE
  5
FF
  8
PATTERN_FILL
  6
CONTINUOUS
 62
     7
 10
259.91818917127858
 20
326.63265877033791
 30
0.0
 11
250.6926019953564
 21
317.40707159441553
 31
0.0
  0
LINE
  5
100
  8
PATTERN_FILL
  6
CONTINUOUS
 62
     7
 10
236.92181599668069
 20
303.63628559573988
 30
0.0
 11
233.88926709665489
 21
300.60373669571402
 31
0.0
  0
LINE
  5
101
  8
PATTERN_FILL
  6
CONTINUOUS
 62
     7
 10
260.0757613028079
 20
323.99023090186699
 30
0.0
 11
250.76886658679609
 21
314.68333618585518
 31
0.0
  0
LINE
  5
102
  8
PATTERN_FILL
  6
CONTINUOUS
 62
     7
 10
236.84115756046671
 20
300.75562715952589
 30
0.0
 11
236.78562453742589
 21
300.70009413648512
 31
0.0
  0
LINE
  5
103
  8
PATTERN_FILL
  6
CONTINUOUS
 62
     7
 10
260.233333434337
 20
321.3478030333963
 30
0.0
 11
250.8451311782357
 21
311.9596007772949
 31
0.0
  0
LINE
  5
104
  8
PATTERN_FILL
  6
CONTINUOUS
 62
     7
 10
260.39090556586632
 20
318.70537516492539
 30
0.0
 11
250.92139576967551
 21
309.23586536873449
 31
0.0
  0
LINE
  5
105
  8
PATTERN_FILL
  6
CONTINUOUS
 62
     7
 10
260.54847769739553
 20
316.06294729645469
 30
0.0
 11
250.99766036111509
 21
306.51212996017421
 31
0.0
  0
LINE
  5
106
  8
PATTERN_FILL
  6
CONTINUOUS
 62
     7
 10
260.70604982892468
 20
313.42051942798389
 30
0.0
 11
251.07392495255479
 21
303.78839455161398
 31
0.0
  0
LINE
  5
107
  8
PATTERN_FILL
  6
CONTINUOUS
 62
     7
 10
260.863621960454
 20
310.77809155951297
 30
0.0
 11
251.15018954399449
 21
301.06465914305358
 31
0.0
  0
LINE
  5
108
  8
PATTERN_FILL
  6
CONTINUOUS
 62
     7
 10
261.02119409198309
 20
308.13566369104223
 30
0.0
 11
253.5118368098573
 21
300.62630640891649
 31
0.0
  0
LINE
  5
109
  8
PATTERN_FILL
  6
CONTINUOUS
 62
     7
 10
261.17876622351241
 20
305.49323582257159
 30
0.0
 11
256.19973874408629
 21
300.51420834314553
 31
0.0
  0
LINE
  5
10A
  8
PATTERN_FILL
  6
CONTINUOUS
 62
     7
 10
261.33633835504151
 20
302.85080795410079
 30
0.0
 11
258.86132241169338
 21
300.37579201075272
 31
0.0
  0
LINE
  5
10B
  8
PATTERN_FILL
  6
CONTINUOUS
 62
     7
 10
257.16424709259547
 20
358.50310620864371
 30
0.0
 11
257.8188165865364
 21
357.84853671470279
 31
0.0
  0
LINE
  5
10C
  8
PATTERN_FILL
  6
CONTINUOUS
 62
     7
 10
254.067353301239
 20
358.80000000000001
 30
0.0
 11
258.2493808850399
 21
354.61797241619911
 31
0.0
  0
LINE
  5
10D
  8
PATTERN_FILL
  6
CONTINUOUS
 62
     7
 10
251.2673533012391
 20
358.80000000000001
 30
0.0
 11
258.42693725651162
 21
351.64041604472749
 31
0.0
  0
LINE
  5
10E
  8
PATTERN_FILL
  6
CONTINUOUS
 62
     7
 10
249.5643149254787
 20
357.7030383757604
 30
0.0
 11
258.60449362798329
 21
348.66285967325581
 31
0.0
  0
LINE
  5
10F
  8
PATTERN_FILL
  6
CONTINUOUS
 62
     7
 10
249.64497336169271
 20
354.82237993954641
 30
0.0
 11
258.7820499994549
 21
345.68530330178419
 31
0.0
  0
LINE
  5
110
  8
PATTERN_FILL
  6
CONTINUOUS
 62
     7
 10
249.72563179790669
 20
351.94172150333242
 30
0.0
 11
258.95960637092651
 21
342.70774693031262
 31
0.0
  0
LINE
  5
111
  8
PATTERN_FILL
  6
CONTINUOUS
 62
     7
 10
249.8062902341207
 20
349.06106306711848
 30
0.0
 11
259.13716274239812
 21
339.730190558841
 31
0.0
  0
LINE
  5
112
  8
PATTERN_FILL
  6
CONTINUOUS
 62
     7
 10
237.2673533012391
 20
358.80000000000001
 30
0.0
 11
238.4337411405007
 21
357.63361216073849
 31
0.0
  0
LINE
  5
113
  8
PATTERN_FILL
  6
CONTINUOUS
 62
     7
 10
249.8869486703347
 20
346.18040463090449
 30
0.0
 11
259.31471911386973
 21
336.75263418736938
 31
0.0
  0
LINE
  5
114
  8
PATTERN_FILL
  6
CONTINUOUS
 62
     7
 10
234.46735330123909
 20
358.80000000000001
 30
0.0
 11
238.357476549061
 21
354.90987675217798
 31
0.0
  0
LINE
  5
115
  8
PATTERN_FILL
  6
CONTINUOUS
 62
     7
 10
249.9676071065486
 20
343.2997461946905
 30
0.0
 11
259.49227548534128
 21
333.7750778158977
 31
0.0
  0
LINE
  5
116
  8
PATTERN_FILL
  6
CONTINUOUS
 62
     7
 10
231.6780186656116
 20
358.78933463562748
 30
0.0
 11
238.28121195762131
 21
352.18614134361781
 31
0.0
  0
LINE
  5
117
  8
PATTERN_FILL
  6
CONTINUOUS
 62
     7
 10
250.04826554276261
 20
340.41908775847651
 30
0.0
 11
259.669831856813
 21
330.79752144442608
 31
0.0
  0
LINE
  5
118
  8
PATTERN_FILL
  6
CONTINUOUS
 62
     7
 10
230.05617752112519
 20
357.61117578011391
 30
0.0
 11
238.20494736618161
 21
349.46240593505752
 31
0.0
  0
LINE
  5
119
  8
PATTERN_FILL
  6
CONTINUOUS
 62
     7
 10
250.1289239789767
 20
337.53842932226252
 30
0.0
 11
259.84738822828461
 21
327.81996507295452
 31
0.0
  0
LINE
  5
11A
  8
PATTERN_FILL
  6
CONTINUOUS
 62
     7
 10
229.7786873132589
 20
355.08866598798028
 30
0.0
 11
238.12868277474189
 21
346.73867052649717
 31
0.0
  0
LINE
  5
11B
  8
PATTERN_FILL
  6
CONTINUOUS
 62
     7
 10
250.2095824151906
 20
334.65777088604852
 30
0.0
 11
260.02494459975628
 21
324.8424087014829
 31
0.0
  0
LINE
  5
11C
  8
PATTERN_FILL
  6
CONTINUOUS
 62
     7
 10
229.62111518172969
 20
352.44623811950942
 30
0.0
 11
238.07644185109001
 21
343.9909114501491
 31
0.0
  0
LINE
  5
11D
  8
PATTERN_FILL
  6
CONTINUOUS
 62
     7
 10
250.2902408514046
 20
331.77711244983448
 30
0.0
 11
260.20250097122789
 21
321.86485233001122
 31
0.0
  0
LINE
  5
11E
  8
PATTERN_FILL
  6
CONTINUOUS
 62
     7
 10
229.46354305020051
 20
349.80381025103861
 30
0.0
 11
237.97615359186261
 21
341.29119970937649
 31
0.0
  0
LINE
  5
11F
  8
PATTERN_FILL
  6
CONTINUOUS
 62
     7
 10
250.37089928761861
 20
328.89645401362048
 30
0.0
 11
260.3800573426995
 21
318.8872959585396
 31
0.0
  0
LINE
  5
120
  8
PATTERN_FILL
  6
CONTINUOUS
 62
     7
 10
229.30597091867131
 20
347.16138238256792
 30
0.0
 11
237.89988900042289
 21
338.56746430081631
 31
0.0
  0
LINE
  5
121
  8
PATTERN_FILL
  6
CONTINUOUS
 62
     7
 10
250.45155772383259
 20
326.01579557740649
 30
0.0
 11
260.55761371417123
 21
315.90973958706797
 31
0.0
  0
LINE
  5
122
  8
PATTERN_FILL
  6
CONTINUOUS
 62
     7
 10
229.14839878714201
 20
344.51895451409712
 30
0.0
 11
237.82362440898319
 21
335.84372889225591
 31
0.0
  0
LINE
  5
123
  8
PATTERN_FILL
  6
CONTINUOUS
 62
     7
 10
250.5322161600466
 20
323.1351371411925
 30
0.0
 11
260.73517008564278
 21
312.9321832155963
 31
0.0
  0
LINE
  5
124
  8
PATTERN_FILL
  6
CONTINUOUS
 62
     7
 10
228.99082665561281
 20
341.8765266456262
 30
0.0
 11
237.7473598175435
 21
333.11999348369562
 31
0.0
  0
LINE
  5
125
  8
PATTERN_FILL
  6
CONTINUOUS
 62
     7
 10
250.61287459626061
 20
320.25447870497851
 30
0.0
 11
260.91272645711439
 21
309.95462684412468
 31
0.0
  0
LINE
  5
126
  8
PATTERN_FILL
  6
CONTINUOUS
 62
     7
 10
228.8332545240836
 20
339.23409877715551
 30
0.0
 11
237.6710952261038
 21
330.39625807513522
 31
0.0
  0
LINE
  5
127
  8
PATTERN_FILL
  6
CONTINUOUS
 62
     7
 10
250.69353303247459
 20
317.37382026876452
 30
0.0
 11
261.09028282858611
 21
306.97707047265311
 31
0.0
  0
LINE
  5
128
  8
PATTERN_FILL
  6
CONTINUOUS
 62
     7
 10
228.67568239255439
 20
336.5916709086847
 30
0.0
 11
237.59483063466411
 21
327.67252266657499
 31
0.0
  0
LINE
  5
129
  8
PATTERN_FILL
  6
CONTINUOUS
 62
     7
 10
250.7741914686886
 20
314.49316183255053
 30
0.0
 11
261.26783920005772
 21
303.99951410118138
 31
0.0
  0
LINE
  5
12A
  8
PATTERN_FILL
  6
CONTINUOUS
 62
     7
 10
228.51811026102521
 20
333.9492430402139
 30
0.0
 11
237.51856604322441
 21
324.9487872580147
 31
0.0
  0
LINE
  5
12B
  8
PATTERN_FILL
  6
CONTINUOUS
 62
     7
 10
250.85484990490261
 20
311.61250339633648
 30
0.0
 11
261.44539557152928
 21
301.02195772970981
 31
0.0
  0
LINE
  5
12C
  8
PATTERN_FILL
  6
CONTINUOUS
 62
     7
 10
228.36053812949601
 20
331.30681517174321
 30
0.0
 11
237.44230145178469
 21
322.22505184945442
 31
0.0
  0
LINE
  5
12D
  8
PATTERN_FILL
  6
CONTINUOUS
 62
     7
 10
250.93550834111659
 20
308.73184496012249
 30
0.0
 11
259.31805950936132
 21
300.34929379187793
 31
0.0
  0
LINE
  5
12E
  8
PATTERN_FILL
  6
CONTINUOUS
 62
     7
 10
228.20296599796669
 20
328.66438730327241
 30
0.0
 11
237.36603686034499
 21
319.50131644089407
 31
0.0
  0
LINE
  5
12F
  8
PATTERN_FILL
  6
CONTINUOUS
 62
     7
 10
251.0161667773306
 20
305.8511865239085
 30
0.0
 11
256.36074237139121
 21
300.5066109298478
 31
0.0
  0
LINE
  5
130
  8
PATTERN_FILL
  6
CONTINUOUS
 62
     7
 10
228.04539386643759
 20
326.02195943480172
 30
0.0
 11
237.2897722689053
 21
316.77758103233373
 31
0.0
  0
LINE
  5
131
  8
PATTERN_FILL
  6
CONTINUOUS
 62
     7
 10
251.09682521354449
 20
302.97052808769462
 30
0.0
 11
253.43837337573689
 21
300.62897992550222
 31
0.0
  0
LINE
  5
132
  8
PATTERN_FILL
  6
CONTINUOUS
 62
     7
 10
227.8878217349083
 20
323.3795315663308
 30
0.0
 11
237.21350767746571
 21
314.05384562377338
 31
0.0
  0
LINE
  5
133
  8
PATTERN_FILL
  6
CONTINUOUS
 62
     7
 10
227.73024960337909
 20
320.73710369785999
 30
0.0
 11
237.13724308602599
 21
311.33011021521321
 31
0.0
  0
LINE
  5
134
  8
PATTERN_FILL
  6
CONTINUOUS
 62
     7
 10
227.57267747184989
 20
318.0946758293893
 30
0.0
 11
237.06097849458629
 21
308.60637480665281
 31
0.0
  0
LINE
  5
135
  8
PATTERN_FILL
  6
CONTINUOUS
 62
     7
 10
227.41510534032059
 20
315.4522479609185
 30
0.0
 11
236.9847139031466
 21
305.88263939809252
 31
0.0
  0
LINE
  5
136
  8
PATTERN_FILL
  6
CONTINUOUS
 62
     7
 10
227.25753320879139
 20
312.80982009244769
 30
0.0
 11
236.9084493117069
 21
303.15890398953218
 31
0.0
  0
LINE
  5
137
  8
PATTERN_FILL
  6
CONTINUOUS
 62
     7
 10
227.09996107726221
 20
310.16739222397678
 30
0.0
 11
236.5732295332144
 21
300.69412376802472
 31
0.0
  0
LINE
  5
138
  8
PATTERN_FILL
  6
CONTINUOUS
 62
     7
 10
226.942388945733
 20
307.52496435550609
 30
0.0
 11
233.86457668932931
 21
300.60277661190969
 31
0.0
  0
LINE
  5
139
  8
PATTERN_FILL
  6
CONTINUOUS
 62
     7
 10
226.78481681420371
 20
304.88253648703528
 30
0.0
 11
231.18282324120599
 21
300.48453006003308
 31
0.0
  0
LINE
  5
13A
  8
PATTERN_FILL
  6
CONTINUOUS
 62
     7
 10
226.62724468267459
 20
302.24010861856448
 30
0.0
 11
228.5272184164985
 21
300.34013488474068
 31
0.0
  0
LINE
  5
13B
  8
PATTERN_FILL
  6
CONTINUOUS
 62
     7
 10
126.2
 20
416.3062591446029
 30
0.0
 11
128.0345730753167
 21
414.47168606928631
 31
0.0
  0
LINE
  5
13C
  8
PATTERN_FILL
  6
CONTINUOUS
 62
     7
 10
126.2
 20
419.10625914460292
 30
0.0
 11
131.030929018986
 21
414.2753301256169
 31
0.0
  0
LINE
  5
13D
  8
PATTERN_FILL
  6
CONTINUOUS
 62
     7
 10
126.2
 20
421.90625914460298
 30
0.0
 11
133.99688658069351
 21
414.10937256390952
 31
0.0
  0
LINE
  5
13E
  8
PATTERN_FILL
  6
CONTINUOUS
 62
     7
 10
126.2
 20
424.70625914460288
 30
0.0
 11
136.93339889349559
 21
413.97286025110719
 31
0.0
  0
LINE
  5
13F
  8
PATTERN_FILL
  6
CONTINUOUS
 62
     7
 10
127.8562591446029
 20
425.85000000000002
 30
0.0
 11
139.84136281842851
 21
413.8648963261744
 31
0.0
  0
LINE
  5
140
  8
PATTERN_FILL
  6
CONTINUOUS
 62
     7
 10
130.6562591446029
 20
425.85000000000002
 30
0.0
 11
142.72162347685699
 21
413.7846356677457
 31
0.0
  0
LINE
  5
141
  8
PATTERN_FILL
  6
CONTINUOUS
 62
     7
 10
133.45625914460291
 20
425.85000000000002
 30
0.0
 11
145.57497832136599
 21
413.73128082323677
 31
0.0
  0
LINE
  5
142
  8
PATTERN_FILL
  6
CONTINUOUS
 62
     7
 10
136.25625914460289
 20
425.85000000000002
 30
0.0
 11
148.4021808014331
 21
413.70407834316973
 31
0.0
  0
LINE
  5
143
  8
PATTERN_FILL
  6
CONTINUOUS
 62
     7
 10
126.2
 20
438.70625914460288
 30
0.0
 11
127.75625914460279
 21
437.14999999999998
 31
0.0
  0
LINE
  5
144
  8
PATTERN_FILL
  6
CONTINUOUS
 62
     7
 10
139.0562591446029
 20
425.85000000000002
 30
0.0
 11
151.20394367219509
 21
413.7023154724078
 31
0.0
  0
LINE
  5
145
  8
PATTERN_FILL
  6
CONTINUOUS
 62
     7
 10
126.2
 20
441.50625914460289
 30
0.0
 11
130.5562591446029
 21
437.14999999999998
 31
0.0
  0
LINE
  5
146
  8
PATTERN_FILL
  6
CONTINUOUS
 62
     7
 10
141.8562591446028
 20
425.85000000000002
 30
0.0
 11
153.9809419879418
 21
413.72531715666099
 31
0.0
  0
LINE
  5
147
  8
PATTERN_FILL
  6
CONTINUOUS
 62
     7
 10
126.2
 20
444.3062591446029
 30
0.0
 11
133.3562591446028
 21
437.14999999999998
 31
0.0
  0
LINE
  5
148
  8
PATTERN_FILL
  6
CONTINUOUS
 62
     7
 10
144.6562591446029
 20
425.85000000000002
 30
0.0
 11
156.733815816353
 21
413.77244332824978
 31
0.0
  0
LINE
  5
149
  8
PATTERN_FILL
  6
CONTINUOUS
 62
     7
 10
126.2344404695818
 20
447.07181867502112
 30
0.0
 11
136.1562591446029
 21
437.14999999999998
 31
0.0
  0
LINE
  5
14A
  8
PATTERN_FILL
  6
CONTINUOUS
 62
     7
 10
147.4562591446028
 20
425.85000000000002
 30
0.0
 11
159.46317270471681
 21
413.84308643988601
 31
0.0
  0
LINE
  5
14B
  8
PATTERN_FILL
  6
CONTINUOUS
 62
     7
 10
127.62447570101379
 20
448.48178344358911
 30
0.0
 11
138.95625914460291
 21
437.14999999999998
 31
0.0
  0
LINE
  5
14C
  8
PATTERN_FILL
  6
CONTINUOUS
 62
     7
 10
150.25625914460289
 20
425.85000000000002
 30
0.0
 11
162.16958992532179
 21
413.93666921928087
 31
0.0
  0
LINE
  5
14D
  8
PATTERN_FILL
  6
CONTINUOUS
 62
     7
 10
130.23117445238859
 20
448.67508469221428
 30
0.0
 11
141.75625914460281
 21
437.14999999999998
 31
0.0
  0
LINE
  5
14E
  8
PATTERN_FILL
  6
CONTINUOUS
 62
     7
 10
153.0562591446029
 20
425.85000000000002
 30
0.0
 11
164.85361652375181
 21
414.05264262085109
 31
0.0
  0
LINE
  5
14F
  8
PATTERN_FILL
  6
CONTINUOUS
 62
     7
 10
132.87508124754601
 20
448.83117789705682
 30
0.0
 11
144.5562591446029
 21
437.14999999999998
 31
0.0
  0
LINE
  5
150
  8
PATTERN_FILL
  6
CONTINUOUS
 62
     7
 10
155.85625914460289
 20
425.85000000000002
 30
0.0
 11
167.515775190856
 21
414.19048395374682
 31
0.0
  0
LINE
  5
151
  8
PATTERN_FILL
  6
CONTINUOUS
 62
     7
 10
135.5404298154636
 20
448.9658293291393
 30
0.0
 11
147.35625914460289
 21
437.14999999999998
 31
0.0
  0
LINE
  5
152
  8
PATTERN_FILL
  6
CONTINUOUS
 62
     7
 10
158.6562591446029
 20
425.85000000000002
 30
0.0
 11
170.1565639766236
 21
414.34969516797918
 31
0.0
  0
LINE
  5
153
  8
PATTERN_FILL
  6
CONTINUOUS
 62
     7
 10
138.22772173444369
 20
449.07853741015907
 30
0.0
 11
150.1562591446029
 21
437.14999999999998
 31
0.0
  0
LINE
  5
154
  8
PATTERN_FILL
  6
CONTINUOUS
 62
     7
 10
161.45625914460291
 20
425.85000000000002
 30
0.0
 11
172.6901047862504
 21
414.61615435835228
 31
0.0
  0
LINE
  5
155
  8
PATTERN_FILL
  6
CONTINUOUS
 62
     7
 10
140.93748346686499
 20
449.1687756777377
 30
0.0
 11
152.9562591446028
 21
437.14999999999998
 31
0.0
  0
LINE
  5
156
  8
PATTERN_FILL
  6
CONTINUOUS
 62
     7
 10
164.25625914460281
 20
425.85000000000002
 30
0.0
 11
173.80000000000001
 21
416.30625914460279
 31
0.0
  0
LINE
  5
157
  8
PATTERN_FILL
  6
CONTINUOUS
 62
     7
 10
143.67026809529179
 20
449.23599104931111
 30
0.0
 11
155.75625914460281
 21
437.14999999999998
 31
0.0
  0
LINE
  5
158
  8
PATTERN_FILL
  6
CONTINUOUS
 62
     7
 10
167.05625914460279
 20
425.85000000000002
 30
0.0
 11
173.7999999999999
 21
419.10625914460292
 31
0.0
  0
LINE
  5
159
  8
PATTERN_FILL
  6
CONTINUOUS
 62
     7
 10
146.42665721922009
 20
449.27960192538279
 30
0.0
 11
158.5562591446029
 21
437.14999999999998
 31
0.0
  0
LINE
  5
15A
  8
PATTERN_FILL
  6
CONTINUOUS
 62
     7
 10
169.8562591446028
 20
425.85000000000002
 30
0.0
 11
173.80000000000001
 21
421.90625914460293
 31
0.0
  0
LINE
  5
15B
  8
PATTERN_FILL
  6
CONTINUOUS
 62
     7
 10
149.2072630310403
 20
449.29899611356262
 30
0.0
 11
161.3562591446028
 21
437.14999999999998
 31
0.0
  0
LINE
  5
15C
  8
PATTERN_FILL
  6
CONTINUOUS
 62
     7
 10
172.6562591446029
 20
425.85000000000002
 30
0.0
 11
173.80000000000001
 21
424.70625914460283
 31
0.0
  0
LINE
  5
15D
  8
PATTERN_FILL
  6
CONTINUOUS
 62
     7
 10
152.01273059239381
 20
449.2935285522089
 30
0.0
 11
164.15625914460281
 21
437.14999999999998
 31
0.0
  0
LINE
  5
15E
  8
PATTERN_FILL
  6
CONTINUOUS
 62
     7
 10
154.84374033513609
 20
449.2625188094666
 30
0.0
 11
166.9562591446028
 21
437.14999999999998
 31
0.0
  0
LINE
  5
15F
  8
PATTERN_FILL
  6
CONTINUOUS
 62
     7
 10
157.7010108146448
 20
449.20524832995801
 30
0.0
 11
169.75625914460281
 21
437.14999999999998
 31
0.0
  0
LINE
  5
160
  8
PATTERN_FILL
  6
CONTINUOUS
 62
     7
 10
160.58530174737689
 20
449.1209573972256
 30
0.0
 11
172.55625914460279
 21
437.14999999999998
 31
0.0
  0
LINE
  5
161
  8
PATTERN_FILL
  6
CONTINUOUS
 62
     7
 10
163.4974173694545
 20
449.00884177514831
 30
0.0
 11
173.80000000000001
 21
438.70625914460283
 31
0.0
  0
LINE
  5
162
  8
PATTERN_FILL
  6
CONTINUOUS
 62
     7
 10
166.43821015882719
 20
448.86804898577549
 30
0.0
 11
173.80000000000001
 21
441.50625914460278
 31
0.0
  0
LINE
  5
163
  8
PATTERN_FILL
  6
CONTINUOUS
 62
     7
 10
169.4085849704079
 20
448.69767417419479
 30
0.0
 11
173.80000000000001
 21
444.30625914460279
 31
0.0
  0
LINE
  5
164
  8
PATTERN_FILL
  6
CONTINUOUS
 62
     7
 10
172.43929716112601
 20
448.46696198347672
 30
0.0
 11
173.74557096797241
 21
447.1606881766304
 31
0.0
  0
LINE
  5
165
  8
PATTERN_FILL
  6
CONTINUOUS
 62
     7
 10
126.2
 20
445.87826086956488
 30
0.0
 11
128.9104361679243
 21
448.58869703748923
 31
0.0
  0
LINE
  5
166
  8
PATTERN_FILL
  6
CONTINUOUS
 62
     7
 10
126.2
 20
443.07826086956499
 30
0.0
 11
131.89783692345
 21
448.77609779301508
 31
0.0
  0
LINE
  5
167
  8
PATTERN_FILL
  6
CONTINUOUS
 62
     7
 10
126.2
 20
440.27826086956492
 30
0.0
 11
134.8551229847389
 21
448.93338385430388
 31
0.0
  0
LINE
  5
168
  8
PATTERN_FILL
  6
CONTINUOUS
 62
     7
 10
126.2
 20
437.47826086956502
 30
0.0
 11
137.7832305986033
 21
449.06149146816841
 31
0.0
  0
LINE
  5
169
  8
PATTERN_FILL
  6
CONTINUOUS
 62
     7
 10
128.6717391304349
 20
437.14999999999998
 30
0.0
 11
140.68304111114219
 21
449.16130198070721
 31
0.0
  0
LINE
  5
16A
  8
PATTERN_FILL
  6
CONTINUOUS
 62
     7
 10
131.47173913043491
 20
437.14999999999998
 30
0.0
 11
143.555385359366
 21
449.23364622893098
 31
0.0
  0
LINE
  5
16B
  8
PATTERN_FILL
  6
CONTINUOUS
 62
     7
 10
134.2717391304349
 20
437.14999999999998
 30
0.0
 11
146.40104761864251
 21
449.27930848820768
 31
0.0
  0
LINE
  5
16C
  8
PATTERN_FILL
  6
CONTINUOUS
 62
     7
 10
137.07173913043491
 20
437.14999999999998
 30
0.0
 11
149.22076915975879
 21
449.29903002932389
 31
0.0
  0
LINE
  5
16D
  8
PATTERN_FILL
  6
CONTINUOUS
 62
     7
 10
126.2
 20
423.47826086956508
 30
0.0
 11
128.57173913043479
 21
425.85000000000002
 31
0.0
  0
LINE
  5
16E
  8
PATTERN_FILL
  6
CONTINUOUS
 62
     7
 10
139.87173913043489
 20
437.14999999999998
 30
0.0
 11
152.01525146183371
 21
449.2935123313988
 31
0.0
  0
LINE
  5
16F
  8
PATTERN_FILL
  6
CONTINUOUS
 62
     7
 10
126.2
 20
420.67826086956501
 30
0.0
 11
131.37173913043489
 21
425.85000000000002
 31
0.0
  0
LINE
  5
170
  8
PATTERN_FILL
  6
CONTINUOUS
 62
     7
 10
142.6717391304349
 20
437.14999999999998
 30
0.0
 11
154.78515912099351
 21
449.26341999055859
 31
0.0
  0
LINE
  5
171
  8
PATTERN_FILL
  6
CONTINUOUS
 62
     7
 10
126.2
 20
417.87826086956511
 30
0.0
 11
134.1717391304349
 21
425.85000000000002
 31
0.0
  0
LINE
  5
172
  8
PATTERN_FILL
  6
CONTINUOUS
 62
     7
 10
145.47173913043491
 20
437.14999999999998
 30
0.0
 11
157.53112248934039
 21
449.20938335890571
 31
0.0
  0
LINE
  5
173
  8
PATTERN_FILL
  6
CONTINUOUS
 62
     7
 10
126.4632001676114
 20
415.34146103717649
 30
0.0
 11
136.9717391304348
 21
425.85000000000002
 31
0.0
  0
LINE
  5
174
  8
PATTERN_FILL
  6
CONTINUOUS
 62
     7
 10
148.27173913043481
 20
437.14999999999998
 30
0.0
 11
160.25374007421669
 21
449.1320009437818
 31
0.0
  0
LINE
  5
175
  8
PATTERN_FILL
  6
CONTINUOUS
 62
     7
 10
128.37000822144589
 20
414.44826909101101
 30
0.0
 11
139.7717391304349
 21
425.85000000000002
 31
0.0
  0
LINE
  5
176
  8
PATTERN_FILL
  6
CONTINUOUS
 62
     7
 10
151.07173913043491
 20
437.14999999999998
 30
0.0
 11
162.95358072388339
 21
449.03184159344858
 31
0.0
  0
LINE
  5
177
  8
PATTERN_FILL
  6
CONTINUOUS
 62
     7
 10
130.99900894136911
 20
414.27726981093417
 30
0.0
 11
142.57173913043491
 21
425.85000000000002
 31
0.0
  0
LINE
  5
178
  8
PATTERN_FILL
  6
CONTINUOUS
 62
     7
 10
153.87173913043489
 20
437.14999999999998
 30
0.0
 11
165.63118562243841
 21
448.90944649200361
 31
0.0
  0
LINE
  5
179
  8
PATTERN_FILL
  6
CONTINUOUS
 62
     7
 10
133.64911012967221
 20
414.12737099923743
 30
0.0
 11
145.37173913043489
 21
425.85000000000002
 31
0.0
  0
LINE
  5
17A
  8
PATTERN_FILL
  6
CONTINUOUS
 62
     7
 10
156.6717391304349
 20
437.14999999999998
 30
0.0
 11
168.2870701139648
 21
448.76533098352991
 31
0.0
  0
LINE
  5
17B
  8
PATTERN_FILL
  6
CONTINUOUS
 62
     7
 10
136.32079669970111
 20
413.9990575692662
 30
0.0
 11
148.17173913043479
 21
425.85000000000002
 31
0.0
  0
LINE
  5
17C
  8
PATTERN_FILL
  6
CONTINUOUS
 62
     7
 10
159.47173913043491
 20
437.14999999999998
 30
0.0
 11
170.9217253734657
 21
448.59998624303091
 31
0.0
  0
LINE
  5
17D
  8
PATTERN_FILL
  6
CONTINUOUS
 62
     7
 10
139.01457730665479
 20
413.89283817621993
 30
0.0
 11
150.97173913043491
 21
425.85000000000002
 31
0.0
  0
LINE
  5
17E
  8
PATTERN_FILL
  6
CONTINUOUS
 62
     7
 10
162.27173913043481
 20
437.14999999999998
 30
0.0
 11
173.1919382316224
 21
448.07019910118748
 31
0.0
  0
LINE
  5
17F
  8
PATTERN_FILL
  6
CONTINUOUS
 62
     7
 10
165.07173913043491
 20
437.14999999999998
 30
0.0
 11
173.80000000000001
 21
445.87826086956522
 31
0.0
  0
LINE
  5
180
  8
PATTERN_FILL
  6
CONTINUOUS
 62
     7
 10
144.47058390387889
 20
413.74884477344398
 30
0.0
 11
156.57173913043479
 21
425.85000000000002
 31
0.0
  0
LINE
  5
181
  8
PATTERN_FILL
  6
CONTINUOUS
 62
     7
 10
167.87173913043489
 20
437.14999999999998
 30
0.0
 11
173.7999999999999
 21
443.0782608695651
 31
0.0
  0
LINE
  5
182
  8
PATTERN_FILL
  6
CONTINUOUS
 62
     7
 10
147.23396136543639
 20
413.71222223500149
 30
0.0
 11
159.37173913043489
 21
425.85000000000002
 31
0.0
  0
LINE
  5
183
  8
PATTERN_FILL
  6
CONTINUOUS
 62
     7
 10
170.67173913043479
 20
437.14999999999998
 30
0.0
 11
173.80000000000001
 21
440.27826086956509
 31
0.0
  0
LINE
  5
184
  8
PATTERN_FILL
  6
CONTINUOUS
 62
     7
 10
150.0217398854231
 20
413.7000007549882
 30
0.0
 11
162.1717391304349
 21
425.85000000000002
 31
0.0
  0
LINE
  5
185
  8
PATTERN_FILL
  6
CONTINUOUS
 62
     7
 10
173.4717391304348
 20
437.14999999999998
 30
0.0
 11
173.7999999999999
 21
437.47826086956508
 31
0.0
  0
LINE
  5
186
  8
PATTERN_FILL
  6
CONTINUOUS
 62
     7
 10
152.83457455802801
 20
413.71283542759301
 30
0.0
 11
164.9717391304348
 21
425.85000000000002
 31
0.0
  0
LINE
  5
187
  8
PATTERN_FILL
  6
CONTINUOUS
 62
     7
 10
155.67315662215691
 20
413.7514174917219
 30
0.0
 11
167.77173913043481
 21
425.85000000000002
 31
0.0
  0
LINE
  5
188
  8
PATTERN_FILL
  6
CONTINUOUS
 62
     7
 10
158.5382162940345
 20
413.8164771635997
 30
0.0
 11
170.57173913043479
 21
425.85000000000002
 31
0.0
  0
LINE
  5
189
  8
PATTERN_FILL
  6
CONTINUOUS
 62
     7
 10
161.43052589422271
 20
413.90878676378787
 30
0.0
 11
173.3717391304348
 21
425.85000000000002
 31
0.0
  0
LINE
  5
18A
  8
PATTERN_FILL
  6
CONTINUOUS
 62
     7
 10
164.3509033074227
 20
414.02916417698788
 30
0.0
 11
173.80000000000001
 21
423.4782608695653
 31
0.0
  0
LINE
  5
18B
  8
PATTERN_FILL
  6
CONTINUOUS
 62
     7
 10
167.30021581948051
 20
414.17847668904568
 30
0.0
 11
173.80000000000001
 21
420.67826086956512
 31
0.0
  0
LINE
  5
18C
  8
PATTERN_FILL
  6
CONTINUOUS
 62
     7
 10
170.2793843832155
 20
414.3576452527808
 30
0.0
 11
173.80000000000001
 21
417.87826086956522
 31
0.0
  0
LINE
  5
18D
  8
PATTERN_FILL
  6
CONTINUOUS
 62
     7
 10
141.73098597985879
 20
413.80924684942403
 30
0.0
 11
153.77173913043481
 21
425.85000000000002
 31
0.0
  0
LINE
  5
18E
  8
SPEC
  6
CONTINUOUS
 62
     7
 10
43.75
 20
650.0
 30
0.0
 11
412.5
 21
650.0
 31
0.0
  0
LINE
  5
18F
  8
SPEC
  6
CONTINUOUS
 62
     7
 10
43.75
 20
640.625
 30
0.0
 11
412.5
 21
640.625
 31
0.0
  0
LINE
  5
190
  8
SPEC
  6
CONTINUOUS
 62
     7
 10
43.75
 20
603.125
 30
0.0
 11
412.5
 21
603.125
 31
0.0
  0
LINE
  5
191
  8
SPEC
  6
CONTINUOUS
 62
     7
 10
43.75
 20
612.5
 30
0.0
 11
412.5
 21
612.5
 31
0.0
  0
LINE
  5
192
  8
SPEC
  6
CONTINUOUS
 62
     7
 10
43.75
 20
621.875
 30
0.0
 11
412.5
 21
621.875
 31
0.0
  0
LINE
  5
193
  8
SPEC
  6
CONTINUOUS
 62
     7
 10
43.75
 20
593.75
 30
0.0
 11
412.5
 21
593.75
 31
0.0
  0
LINE
  5
194
  8
SPEC
  6
CONTINUOUS
 62
     7
 10
43.75
 20
575.0
 30
0.0
 11
412.5
 21
575.0
 31
0.0
  0
LINE
  5
195
  8
SPEC
  6
CONTINUOUS
 62
     7
 10
43.75
 20
584.375
 30
0.0
 11
412.5
 21
584.375
 31
0.0
  0
LINE
  5
196
  8
SPEC
  6
CONTINUOUS
 62
     7
 10
43.75
 20
565.625
 30
0.0
 11
412.5
 21
565.625
 31
0.0
  0
LINE
  5
197
  8
SPEC
  6
CONTINUOUS
 62
     7
 10
43.75
 20
556.25
 30
0.0
 11
412.5
 21
556.25
 31
0.0
  0
LINE
  5
198
  8
SPEC
  6
CONTINUOUS
 62
     7
 10
43.75
 20
631.25
 30
0.0
 11
412.5
 21
631.25
 31
0.0
  0
TEXT
  5
199
  8
SPEC
 62
     7
 10
126.8727304635523
 20
642.95600033259518
 30
0.0
 40
4.7507781249999992
  1
コンデンサー型 
 41
0.7
 11
126.8727304635523
 21
647.70677845759508
 31
0.0
 73
     3
  0
LINE
  5
19A
  8
SPEC
  6
CONTINUOUS
 62
     7
 10
43.75
 20
537.5
 30
0.0
 11
412.5
 21
537.5
 31
0.0
  0
LINE
  5
19B
  8
SPEC
  6
CONTINUOUS
 62
     7
 10
43.75
 20
650.0
 30
0.0
 11
43.75
 21
509.375
 31
0.0
  0
TEXT
  5
19C
  8
SPEC
 62
     7
 10
46.875
 20
653.48317499999985
 30
0.0
 40
6.108154296875
  1
仕様
 41
0.7
 11
46.875
 21
659.59132929687496
 31
0.0
 73
     3
  0
LINE
  5
19D
  8
SPEC
  6
CONTINUOUS
 62
     7
 10
125.0
 20
650.0
 30
0.0
 11
125.0
 21
509.375
 31
0.0
  0
LINE
  5
19E
  8
SPEC
  6
CONTINUOUS
 62
     7
 10
412.5
 20
650.0
 30
0.0
 11
412.5
 21
509.375
 31
0.0
  0
TEXT
  5
19F
  8
SPEC
 62
     7
 10
46.236459880116769
 20
521.14590425665403
 30
0.0
 40
4.7507781249999992
  1
付属品
 41
0.7
 11
46.236459880116769
 21
525.89668238165405
 31
0.0
 73
     3
  0
TEXT
  5
1A0
  8
SPEC
 62
     7
 10
46.35947145106018
 20
605.59806403148445
 30
0.0
 40
4.7507781249999992
  1
最大音圧レベル
 41
0.7
 11
46.35947145106018
 21
610.34884215648447
 31
0.0
 73
     3
  0
TEXT
  5
1A1
  8
SPEC
 62
     7
 10
46.21602293029261
 20
642.81082693029248
 30
0.0
 40
4.7507781249999992
  1
形式
 41
0.7
 11
46.21602293029261
 21
647.56160505529249
 31
0.0
 73
     3
  0
TEXT
  5
1A2
  8
SPEC
 62
     7
 10
45.667387861962311
 20
549.46251225635547
 30
0.0
 40
4.7507781249999992
  1
コネクター
 41
0.7
 11
45.667387861962311
 21
554.21329038135559
 31
0.0
 73
     3
  0
TEXT
  5
1A3
  8
SPEC
 62
     7
 10
46.254619332337903
 20
586.57820505464304
 30
0.0
 40
4.7507781249999992
  1
パッド
 41
0.7
 11
46.254619332337903
 21
591.32898317964305
 31
0.0
 73
     3
  0
TEXT
  5
1A4
  8
SPEC
 62
     7
 10
45.428008341529647
 20
577.18430087192633
 30
0.0
 40
4.7507781249999992
  1
ローカットフィルター
 41
0.7
 11
45.428008341529647
 21
581.93507899692634
 31
0.0
 73
     3
  0
TEXT
  5
1A5
  8
SPEC
 62
     7
 10
46.143788580424058
 20
614.82927545106043
 30
0.0
 40
4.7507781249999992
  1
開回路感度
 41
0.7
 11
46.143788580424058
 21
619.58005357606044
 31
0.0
 73
     3
  0
TEXT
  5
1A6
  8
SPEC
 62
     7
 10
46.28757716084813
 20
595.93548687063617
 30
0.0
 40
4.7507781249999992
  1
等価雑音レベル
 41
0.7
 11
46.28757716084813
 21
600.68626499563607
 31
0.0
 73
     3
  0
TEXT
  5
1A7
  8
SPEC
 62
     7
 10
46.288030573723489
 20
633.43582693029248
 30
0.0
 40
4.7507781249999992
  1
指向特性
 41
0.7
 11
46.288030573723489
 21
638.18660505529249
 31
0.0
 73
     3
  0
TEXT
  5
1A8
  8
SPEC
 62
     7
 10
46.28757716084813
 20
624.06048687063617
 30
0.0
 40
4.7507781249999992
  1
周波数特性
 41
0.7
 11
46.28757716084813
 21
628.81126499563607
 31
0.0
 73
     3
  0
TEXT
  5
1A9
  8
SPEC
 62
     7
 10
45.928501042691181
 20
567.80930087192633
 30
0.0
 40
4.7507781249999992
  1
インピーダンス
 41
0.7
 11
45.928501042691181
 21
572.56007899692634
 31
0.0
 73
     3
  0
TEXT
  5
1AA
  8
SPEC
 62
     7
 10
46.214159214565171
 20
558.32688360728253
 30
0.0
 40
4.7507781249999992
  1
電源
 41
0.7
 11
46.214159214565171
 21
563.07766173228254
 31
0.0
 73
     3
  0
TEXT
  5
1AB
  8
SPEC
 62
     7
 10
46.189466158527317
 20
530.80530209447738
 30
0.0
 40
4.7507781249999992
  1
質量
 41
0.7
 11
46.189466158527317
 21
535.55608021947751
 31
0.0
 73
     3
  0
TEXT
  5
1AC
  8
SPEC
 62
     7
 10
127.3995529262281
 20
633.87376984207697
 30
0.0
 40
4.7507781249999992
  1
無指向性/ワイドカーディオイド/カーディオイド/ハイパーカーディオイド/双指向性
 41
0.7
 11
127.3995529262281
 21
638.62454796707686
 31
0.0
 73
     3
  0
TEXT
  5
1AD
  8
SPEC
 62
     7
 10
127.5792234856674
 20
623.97589977957159
 30
0.0
 40
4.7507781249999992
  1
20Hz～20kHz
 41
0.7
 11
127.5792234856674
 21
628.72667790457149
 31
0.0
 73
     3
  0
TEXT
  5
1AE
  8
SPEC
 62
     7
 10
127.218719390039
 20
605.43475151727364
 30
0.0
 40
4.7507781249999992
  1
140dB SPL(パッドOFF、THD 0.5%%%)
 41
0.7
 11
127.218719390039
 21
610.18552964227365
 31
0.0
 73
     3
  0
TEXT
  5
1AF
  8
SPEC
 62
     7
 10
127.5779293697951
 20
595.97588631696715
 30
0.0
 40
4.7507781249999992
  1
6dB SPL(Aウェイト)
 41
0.7
 11
127.5779293697951
 21
600.72666444196716
 31
0.0
 73
     3
  0
TEXT
  5
1B0
  8
SPEC
 62
     7
 10
127.6550494726302
 20
586.81332642785242
 30
0.0
 40
4.7507781249999992
  1
0/-6/-12/-18dB
 41
0.7
 11
127.6550494726302
 21
591.56410455285231
 31
0.0
 73
     3
  0
TEXT
  5
1B1
  8
SPEC
 62
     7
 10
127.6005235820838
 20
577.14511814925015
 30
0.0
 40
4.7507781249999992
  1
Flat/40Hz(12dB/oct)/80Hz(12dB/oct)/160Hz(6dB/oct)
 41
0.7
 11
127.6005235820838
 21
581.89589627425016
 31
0.0
 73
     3
  0
TEXT
  5
1B2
  8
SPEC
 62
     7
 10
127.5605963325045
 20
567.80328106600348
 30
0.0
 40
4.7507781249999992
  1
200\U+03A9以下
 41
0.7
 11
127.5605963325045
 21
572.5540591910036
 31
0.0
 73
     3
  0
TEXT
  5
1B3
  8
SPEC
 62
     7
 10
126.9005791259323
 20
558.59410904888102
 30
0.0
 40
4.7507781249999992
  1
ファンタム DC48V/約4.5mA
 41
0.7
 11
126.9005791259323
 21
563.34488717388103
 31
0.0
 73
     3
  0
TEXT
  5
1B4
  8
SPEC
 62
     7
 10
127.7384191502623
 20
548.86457816432312
 30
0.0
 40
4.7507781249999992
  1
XLR3ピン
 41
0.7
 11
127.7384191502623
 21
553.61535628932313
 31
0.0
 73
     3
  0
TEXT
  5
1B5
  8
SPEC
 62
     7
 10
127.5983216350476
 20
539.62379698102836
 30
0.0
 40
4.7507781249999992
  1
50(W)\U+00D7160(H)38(D)mm
 41
0.7
 11
127.5983216350476
 21
544.37457510602837
 31
0.0
 73
     3
  0
TEXT
  5
1B6
  8
SPEC
 62
     7
 10
127.4589929810286
 20
530.45278996205707
 30
0.0
 40
4.7507781249999992
  1
約300g
 41
0.7
 11
127.4589929810286
 21
535.20356808705696
 31
0.0
 73
     3
  0
TEXT
  5
1B7
  8
SPEC
 62
     7
 10
127.481848875333
 20
520.88665287533286
 30
0.0
 40
4.7507781249999992
  1
サスペンション付ホルダ－(H 85)/ホップ・スクリーン(PF 80)/ウインドスクリーン(W 414 X）
 41
0.7
 11
127.481848875333
 21
525.63743100033287
 31
0.0
 73
     3
  0
TEXT
  5
1B8
  8
SPEC
 62
     7
 10
127.481848875333
 20
511.41391332519981
 30
0.0
 40
4.7507781249999992
  1
特性データーシート/布製ポーチ/キャリングハードケース
 41
0.7
 11
127.481848875333
 21
516.16469145019983
 31
0.0
 73
     3
  0
TEXT
  5
1B9
  8
SPEC
 62
     7
 10
127.7438352285009
 20
614.54480451388588
 30
0.0
 40
4.7507781249999992
  1
-33dBV re 1V/Pa(\U+00B10.5dB)
 41
0.7
 11
127.7438352285009
 21
619.29558263888589
 31
0.0
 73
     3
  0
LINE
  5
1BA
  8
SPEC
  6
CONTINUOUS
 62
     7
 10
43.75
 20
546.875
 30
0.0
 11
412.5
 21
546.875
 31
0.0
  0
TEXT
  5
1BB
  8
SPEC
 62
     7
 10
46.047441220802142
 20
540.11836295798207
 30
0.0
 40
4.7507781249999992
  1
寸法
 41
0.7
 11
46.047441220802142
 21
544.86914108298208
 31
0.0
 73
     3
  0
LINE
  5
1BC
  8
SPEC
  6
CONTINUOUS
 62
     7
 10
43.75
 20
528.125
 30
0.0
 11
412.5
 21
528.125
 31
0.0
  0
LINE
  5
1BD
  8
SPEC
  6
CONTINUOUS
 62
     7
 10
43.75
 20
509.375
 30
0.0
 11
412.5
 21
509.375
 31
0.0
  0
TEXT
  5
1BE
  8
DIMNSIONS
 62
     7
 10
200.0
 20
55.67372499999999
 30
0.0
 40
6.108154296875
  1
(単位：mm)
 41
0.7
 11
200.0
 21
61.78187929687499
 31
0.0
 73
     3
  0
LINE
  5
1BF
  8
DIMNSIONS
  6
CONTINUOUS
 62
     7
 10
133.49999999999989
 20
200.0
 30
0.0
 11
82.499999999999986
 21
200.0
 31
0.0
  0
LINE
  5
1C0
  8
DIMNSIONS
  6
CONTINUOUS
 62
     7
 10
122.4999999999999
 20
360.0
 30
0.0
 11
82.499999999999986
 21
360.0
 31
0.0
  0
LINE
  5
1C1
  8
DIMNSIONS
  6
CONTINUOUS
 62
     7
 10
87.499999999999957
 20
200.0
 30
0.0
 11
87.499999999999957
 21
360.0
 31
0.0
  0
LINE
  5
1C2
  8
DIMNSIONS
  6
CONTINUOUS
 62
     7
 10
87.499999999999957
 20
200.0
 30
0.0
 11
85.824900512124358
 21
206.2515563964844
 31
0.0
  0
LINE
  5
1C3
  8
DIMNSIONS
  6
CONTINUOUS
 62
     7
 10
87.499999999999957
 20
200.0
 30
0.0
 11
89.175099487875556
 21
206.2515563964844
 31
0.0
  0
LINE
  5
1C4
  8
DIMNSIONS
  6
CONTINUOUS
 62
     7
 10
87.499999999999957
 20
360.0
 30
0.0
 11
89.175099487875556
 21
353.74844360351562
 31
0.0
  0
LINE
  5
1C5
  8
DIMNSIONS
  6
CONTINUOUS
 62
     7
 10
87.499999999999957
 20
360.0
 30
0.0
 11
85.824900512124358
 21
353.74844360351562
 31
0.0
  0
TEXT
  5
1C6
  8
DIMNSIONS
 62
     7
 10
85.015277777777726
 20
268.38541666666657
 30
0.0
 40
6.7868381076388884
  1
160
 50
90.0
 41
0.7
 11
78.22843967013884
 21
268.38541666666657
 31
0.0
 73
     3
  0
LINE
  5
1C7
  8
DIMNSIONS
  6
CONTINUOUS
 62
     7
 10
124.9999999999999
 20
295.10626113963002
 30
0.0
 11
124.9999999999999
 21
157.5
 31
0.0
  0
LINE
  5
1C8
  8
DIMNSIONS
  6
CONTINUOUS
 62
     7
 10
174.9955724525154
 20
295.10626113963002
 30
0.0
 11
174.9955724525154
 21
157.5
 31
0.0
  0
LINE
  5
1C9
  8
DIMNSIONS
  6
CONTINUOUS
 62
     7
 10
124.9999999999999
 20
162.5
 30
0.0
 11
174.9955724525154
 21
162.5
 31
0.0
  0
LINE
  5
1CA
  8
DIMNSIONS
  6
CONTINUOUS
 62
     7
 10
124.9999999999999
 20
162.5
 30
0.0
 11
131.25155639648429
 21
164.1750994878756
 31
0.0
  0
LINE
  5
1CB
  8
DIMNSIONS
  6
CONTINUOUS
 62
     7
 10
124.9999999999999
 20
162.5
 30
0.0
 11
131.25155639648429
 21
160.8249005121244
 31
0.0
  0
LINE
  5
1CC
  8
DIMNSIONS
  6
CONTINUOUS
 62
     7
 10
174.9955724525154
 20
162.5
 30
0.0
 11
168.744016056031
 21
160.8249005121244
 31
0.0
  0
LINE
  5
1CD
  8
DIMNSIONS
  6
CONTINUOUS
 62
     7
 10
174.9955724525154
 20
162.5
 30
0.0
 11
168.744016056031
 21
164.1750994878756
 31
0.0
  0
TEXT
  5
1CE
  8
DIMNSIONS
 62
     7
 10
145.5880640040354
 20
164.98472222222219
 30
0.0
 40
6.7868381076388884
  1
50
 41
0.7
 11
145.5880640040354
 21
171.7715603298611
 31
0.0
 73
     3
  0
LINE
  5
1CF
  8
DIMNSIONS
  6
CONTINUOUS
 62
     7
 10
145.0
 20
412.5
 30
0.0
 11
82.5
 21
412.5
 31
0.0
  0
LINE
  5
1D0
  8
DIMNSIONS
  6
CONTINUOUS
 62
     7
 10
145.0
 20
450.49999999999989
 30
0.0
 11
82.5
 21
450.49999999999989
 31
0.0
  0
LINE
  5
1D1
  8
DIMNSIONS
  6
CONTINUOUS
 62
     7
 10
87.5
 20
412.5
 30
0.0
 11
87.5
 21
450.49999999999989
 31
0.0
  0
LINE
  5
1D2
  8
DIMNSIONS
  6
CONTINUOUS
 62
     7
 10
87.5
 20
412.5
 30
0.0
 11
85.824900512124401
 21
418.75155639648437
 31
0.0
  0
LINE
  5
1D3
  8
DIMNSIONS
  6
CONTINUOUS
 62
     7
 10
87.5
 20
412.5
 30
0.0
 11
89.175099487875585
 21
418.75155639648437
 31
0.0
  0
LINE
  5
1D4
  8
DIMNSIONS
  6
CONTINUOUS
 62
     7
 10
87.5
 20
450.49999999999989
 30
0.0
 11
89.175099487875585
 21
444.24844360351562
 31
0.0
  0
LINE
  5
1D5
  8
DIMNSIONS
  6
CONTINUOUS
 62
     7
 10
87.5
 20
450.49999999999989
 30
0.0
 11
85.824900512124401
 21
444.24844360351562
 31
0.0
  0
TEXT
  5
1D6
  8
DIMNSIONS
 62
     7
 10
85.015277777777754
 20
427.09027777777771
 30
0.0
 40
6.7868381076388884
  1
38
 50
90.0
 41
0.7
 11
78.228439670138869
 21
427.09027777777771
 31
0.0
 73
     3
  0
LINE
  5
1D7
  8
DIMNSIONS
  6
CONTINUOUS
 62
     7
 10
133.99999999999989
 20
200.0
 30
0.0
 11
107.4999999999999
 21
200.0
 31
0.0
  0
LINE
  5
1D8
  8
DIMNSIONS
  6
CONTINUOUS
 62
     7
 10
125.6801376094308
 20
242.0
 30
0.0
 11
107.4999999999999
 21
242.0
 31
0.0
  0
LINE
  5
1D9
  8
DIMNSIONS
  6
CONTINUOUS
 62
     7
 10
112.4999999999999
 20
200.0
 30
0.0
 11
112.4999999999999
 21
242.0
 31
0.0
  0
LINE
  5
1DA
  8
DIMNSIONS
  6
CONTINUOUS
 62
     7
 10
112.4999999999999
 20
200.0
 30
0.0
 11
110.8249005121243
 21
206.2515563964844
 31
0.0
  0
LINE
  5
1DB
  8
DIMNSIONS
  6
CONTINUOUS
 62
     7
 10
112.4999999999999
 20
200.0
 30
0.0
 11
114.1750994878755
 21
206.2515563964844
 31
0.0
  0
LINE
  5
1DC
  8
DIMNSIONS
  6
CONTINUOUS
 62
     7
 10
112.4999999999999
 20
242.0
 30
0.0
 11
114.1750994878755
 21
235.7484436035156
 31
0.0
  0
LINE
  5
1DD
  8
DIMNSIONS
  6
CONTINUOUS
 62
     7
 10
112.4999999999999
 20
242.0
 30
0.0
 11
110.8249005121243
 21
235.7484436035156
 31
0.0
  0
TEXT
  5
1DE
  8
DIMNSIONS
 62
     7
 10
110.0152777777777
 20
216.59027777777769
 30
0.0
 40
6.7868381076388884
  1
42
 50
90.0
 41
0.7
 11
103.2284396701388
 21
216.59027777777769
 31
0.0
 73
     3
  0
LINE
  5
1DF
  8
DIMNSIONS
  6
CONTINUOUS
 62
     7
 10
138.5
 20
195.5
 30
0.0
 11
138.5
 21
182.5
 31
0.0
  0
LINE
  5
1E0
  8
DIMNSIONS
  6
CONTINUOUS
 62
     7
 10
161.5
 20
195.5
 30
0.0
 11
161.5
 21
182.5
 31
0.0
  0
LINE
  5
1E1
  8
DIMNSIONS
  6
CONTINUOUS
 62
     7
 10
138.5
 20
187.5
 30
0.0
 11
161.5
 21
187.5
 31
0.0
  0
LINE
  5
1E2
  8
DIMNSIONS
  6
CONTINUOUS
 62
     7
 10
138.5
 20
187.5
 30
0.0
 11
144.75155639648429
 21
189.1750994878756
 31
0.0
  0
LINE
  5
1E3
  8
DIMNSIONS
  6
CONTINUOUS
 62
     7
 10
138.5
 20
187.5
 30
0.0
 11
144.75155639648429
 21
185.8249005121244
 31
0.0
  0
LINE
  5
1E4
  8
DIMNSIONS
  6
CONTINUOUS
 62
     7
 10
161.5
 20
187.5
 30
0.0
 11
155.2484436035156
 21
185.8249005121244
 31
0.0
  0
LINE
  5
1E5
  8
DIMNSIONS
  6
CONTINUOUS
 62
     7
 10
161.5
 20
187.5
 30
0.0
 11
155.2484436035156
 21
189.1750994878756
 31
0.0
  0
TEXT
  5
1E6
  8
DIMNSIONS
 62
     7
 10
145.59027777777769
 20
189.98472222222219
 30
0.0
 40
6.7868381076388884
  1
23
 41
0.7
 11
145.59027777777769
 21
196.7715603298611
 31
0.0
 73
     3
  0
TEXT
  5
1E7
  8
DATA
 62
     7
 10
375.0
 20
52.827224999999999
 30
0.0
 40
6.108154296875
  1
C414B-XLII
 41
0.7
 11
375.0
 21
58.935379296874999
 31
0.0
 73
     3
  0
TEXT
  5
1E8
  8
DATA
 62
     7
 10
375.0
 20
70.952225000000013
 30
0.0
 40
6.108154296875
  1
AKG
 41
0.7
 11
375.0
 21
77.060379296875013
 31
0.0
 73
     3
  0
TEXT
  5
1E9
  8
DATA
 62
     7
 10
368.75
 20
62.259834500000032
 30
0.0
 40
4.0721092773437491
  1
コンデンサー型 
 41
0.7
 11
368.75
 21
66.331943777343781
 31
0.0
 73
     3
  0
TEXT
  5
1EA
  8
DATA
 62
     7
 10
50.0
 20
35.595000000000063
 30
0.0
 40
4.072102864583333
  1
仕様および外観は予告なく変更されることがありますので、ご了承ください。
 41
0.7
 11
50.0
 21
39.667102864583399
 31
0.0
 73
     3
  0
LINE
  5
1EB
  8
DATA
  6
CONTINUOUS
 62
     7
 10
373.5
 20
200.0
 30
0.0
 11
351.5
 21
200.0
 31
0.0
  0
LINE
  5
1EC
  8
DATA
  6
CONTINUOUS
 62
     7
 10
381.81986239056909
 20
242.0
 30
0.0
 11
343.18013760943091
 21
242.0
 31
0.0
  0
LINE
  5
1ED
  8
DATA
  6
CONTINUOUS
 62
     7
 10
351.5
 20
202.0
 30
0.0
 11
351.5
 21
242.0
 31
0.0
  0
LINE
  5
1EE
  8
DATA
  6
CONTINUOUS
 62
     7
 10
373.5
 20
242.0
 30
0.0
 11
373.5
 21
202.0
 31
0.0
  0
LINE
  5
1EF
  8
DATA
  6
CONTINUOUS
 62
     7
 10
351.0
 20
200.5
 30
0.0
 11
351.0
 21
201.5
 31
0.0
  0
LINE
  5
1F0
  8
DATA
  6
CONTINUOUS
 62
     7
 10
374.0
 20
201.5
 30
0.0
 11
374.0
 21
200.5
 31
0.0
  0
LINE
  5
1F1
  8
DATA
  6
CONTINUOUS
 62
     7
 10
351.5
 20
202.0
 30
0.0
 11
373.5
 21
202.0
 31
0.0
  0
LINE
  5
1F2
  8
DATA
  6
CONTINUOUS
 62
     7
 10
341.3844030182695
 20
243.67615623509229
 30
0.0
 11
337.5
 21
300.0
 31
0.0
  0
LINE
  5
1F3
  8
DATA
  6
CONTINUOUS
 62
     7
 10
383.6155969817305
 20
243.67615623509229
 30
0.0
 11
387.5
 21
300.0
 31
0.0
  0
LINE
  5
1F4
  8
DATA
  6
CONTINUOUS
 62
     7
 10
337.5
 20
300.0
 30
0.0
 11
339.90339356091772
 21
357.68144546202439
 31
0.0
  0
LINE
  5
1F5
  8
DATA
  6
CONTINUOUS
 62
     7
 10
387.5
 20
300.0
 30
0.0
 11
385.09660643908239
 21
357.68144546202348
 31
0.0
  0
ARC
  5
1F6
  8
DATA
  6
CONTINUOUS
 62
     7
 10
362.5
 20
105.4366319444439
 30
0.0
 40
254.56336805555611
 50
85.217696828262646
 51
94.782303171737297
  0
ARC
  5
1F7
  8
DATA
  6
CONTINUOUS
 62
     7
 10
341.40209317055979
 20
357.61899964495598
 30
0.0
 40
1.500000000003606
 50
94.782303171873778
 51
177.6140559696112
  0
ARC
  5
1F8
  8
DATA
  6
CONTINUOUS
 62
     7
 10
383.59790682943918
 20
357.61899964495501
 30
0.0
 40
1.5000000000046301
 50
2.3859440303888122
 51
85.217696828085991
  0
LINE
  5
1F9
  8
DATA
  6
CONTINUOUS
 62
     7
 10
338.70051623866721
 20
300.01238972801372
 30
0.0
 11
341.06468112672229
 21
356.75234704133322
 31
0.0
  0
LINE
  5
1FA
  8
DATA
  6
CONTINUOUS
 62
     7
 10
386.29948376133279
 20
300.01238972801002
 30
0.0
 11
383.93531887327811
 21
356.75234704132691
 31
0.0
  0
ARC
  5
1FB
  8
DATA
  6
CONTINUOUS
 62
     7
 10
362.5
 20
104.2366319444439
 30
0.0
 40
254.56336805555611
 50
85.439717953155011
 51
94.56028204684479
  0
ARC
  5
1FC
  8
DATA
  6
CONTINUOUS
 62
     7
 10
342.36355412173413
 20
356.69822733320768
 30
0.0
 40
1.299999999991851
 50
94.560282046489391
 51
177.6140559696112
  0
ARC
  5
1FD
  8
DATA
  6
CONTINUOUS
 62
     7
 10
382.63644587825888
 20
356.69822733320109
 30
0.0
 40
1.2999999999991081
 50
2.3859440303887469
 51
85.439717953194204
  0
ARC
  5
1FE
  8
DATA
  6
CONTINUOUS
 62
     7
 10
343.18013760943091
 20
243.80000000000001
 30
0.0
 40
1.7999999999999921
 50
183.9451862290374
 51
270.0
  0
ARC
  5
1FF
  8
DATA
  6
CONTINUOUS
 62
     7
 10
381.81986239056909
 20
243.80000000000001
 30
0.0
 40
1.7999999999999969
 50
270.0
 51
356.05481377096248
  0
ARC
  5
200
  8
DATA
  6
CONTINUOUS
 62
     7
 10
362.5
 20
612.10626113962996
 30
0.0
 40
313.00000000000011
 50
265.4187799147229
 51
274.58122008527698
  0
LINE
  5
201
  8
DATA
  6
CONTINUOUS
 62
     7
 10
358.01022164816521
 20
289.37549554077577
 30
0.0
 11
346.44714913545693
 21
289.38694834684708
 31
0.0
  0
LINE
  5
202
  8
DATA
  6
CONTINUOUS
 62
     7
 10
359.39999999999998
 20
299.12161295381247
 30
0.0
 11
357.86764363163849
 21
288.37563675915629
 31
0.0
  0
LINE
  5
203
  8
DATA
  6
CONTINUOUS
 62
     7
 10
345.39999999999998
 20
299.57371883403272
 30
0.0
 11
346.54995460877649
 21
288.38684652173538
 31
0.0
  0
ARC
  5
204
  8
DATA
  6
CONTINUOUS
 62
     7
 10
362.5
 20
609.80626113963012
 30
0.0
 40
313.00000000000011
 50
266.91178564607583
 51
269.37413852897379
  0
LINE
  5
205
  8
DATA
  6
CONTINUOUS
 62
     7
 10
357.86764363163849
 20
288.37563675915629
 30
0.0
 11
346.54995460877649
 21
288.38684652173538
 31
0.0
  0
LINE
  5
206
  8
DATA
  6
CONTINUOUS
 62
     7
 10
348.9875007683184
 20
291.68562303527813
 30
0.0
 11
346.9875007683184
 21
293.28562303527809
 31
0.0
  0
LINE
  5
207
  8
DATA
  6
CONTINUOUS
 62
     7
 10
348.9875007683184
 20
294.88562303527812
 30
0.0
 11
346.9875007683184
 21
293.28562303527809
 31
0.0
  0
LINE
  5
208
  8
DATA
  6
CONTINUOUS
 62
     7
 10
348.9875007683184
 20
291.68562303527813
 30
0.0
 11
348.9875007683184
 21
294.88562303527812
 31
0.0
  0
LINE
  5
209
  8
DATA
  6
CONTINUOUS
 62
     7
 10
355.6165732642221
 20
291.68562303527813
 30
0.0
 11
357.61657326422198
 21
293.28562303527809
 31
0.0
  0
LINE
  5
20A
  8
DATA
  6
CONTINUOUS
 62
     7
 10
355.6165732642221
 20
294.88562303527812
 30
0.0
 11
357.61657326422198
 21
293.28562303527809
 31
0.0
  0
LINE
  5
20B
  8
DATA
  6
CONTINUOUS
 62
     7
 10
355.6165732642221
 20
291.68562303527813
 30
0.0
 11
355.6165732642221
 21
294.88562303527812
 31
0.0
  0
LINE
  5
20C
  8
DATA
  6
CONTINUOUS
 62
     7
 10
366.9897783518349
 20
289.37549554077577
 30
0.0
 11
378.55285086454307
 21
289.38694834684708
 31
0.0
  0
LINE
  5
20D
  8
DATA
  6
CONTINUOUS
 62
     7
 10
365.60000000000002
 20
299.12161295381247
 30
0.0
 11
367.13235636836163
 21
288.37563675915629
 31
0.0
  0
LINE
  5
20E
  8
DATA
  6
CONTINUOUS
 62
     7
 10
379.60000000000002
 20
299.57371883403272
 30
0.0
 11
378.45004539122351
 21
288.38684652173538
 31
0.0
  0
ARC
  5
20F
  8
DATA
  6
CONTINUOUS
 62
     7
 10
362.5
 20
609.80626113963012
 30
0.0
 40
313.00000000000011
 50
270.6258614710261
 51
273.08821435392429
  0
LINE
  5
210
  8
DATA
  6
CONTINUOUS
 62
     7
 10
367.13235636836163
 20
288.37563675915629
 30
0.0
 11
378.45004539122351
 21
288.38684652173538
 31
0.0
  0
LINE
  5
211
  8
DATA
  6
CONTINUOUS
 62
     7
 10
376.0124992316816
 20
291.68562303527813
 30
0.0
 11
378.0124992316816
 21
293.28562303527809
 31
0.0
  0
LINE
  5
212
  8
DATA
  6
CONTINUOUS
 62
     7
 10
376.0124992316816
 20
294.88562303527812
 30
0.0
 11
378.0124992316816
 21
293.28562303527809
 31
0.0
  0
LINE
  5
213
  8
DATA
  6
CONTINUOUS
 62
     7
 10
376.0124992316816
 20
291.68562303527813
 30
0.0
 11
376.0124992316816
 21
294.88562303527812
 31
0.0
  0
LINE
  5
214
  8
DATA
  6
CONTINUOUS
 62
     7
 10
369.38342673577802
 20
291.68562303527813
 30
0.0
 11
367.38342673577802
 21
293.28562303527809
 31
0.0
  0
LINE
  5
215
  8
DATA
  6
CONTINUOUS
 62
     7
 10
369.38342673577802
 20
294.88562303527812
 30
0.0
 11
367.38342673577802
 21
293.28562303527809
 31
0.0
  0
LINE
  5
216
  8
DATA
  6
CONTINUOUS
 62
     7
 10
369.38342673577802
 20
291.68562303527813
 30
0.0
 11
369.38342673577802
 21
294.88562303527812
 31
0.0
  0
TEXT
  5
217
  8
DATA
 62
     7
 10
345.90170654790222
 20
284.7081678168293
 30
0.0
 40
2.1717881944444439
  1
0-6-12-18
 41
0.7
 11
345.90170654790222
 21
286.87995601127369
 31
0.0
 73
     3
  0
TEXT
  5
218
  8
DATA
 62
     7
 10
350.38105536830682
 20
281.26488664206317
 30
0.0
 40
2.1717881944444439
  1
dB
 41
0.7
 11
350.38105536830682
 21
283.43667483650762
 31
0.0
 73
     3
  0
TEXT
  5
219
  8
DATA
 62
     7
 10
365.17155955821647
 20
284.7081678168293
 30
0.0
 40
2.1717881944444439
  1
0 40 80 160
 41
0.7
 11
365.17155955821647
 21
286.87995601127369
 31
0.0
 73
     3
  0
TEXT
  5
21A
  8
DATA
 62
     7
 10
374.23885610702388
 20
281.26488664206317
 30
0.0
 40
2.1717881944444439
  1
Hz
 41
0.7
 11
374.23885610702388
 21
283.43667483650762
 31
0.0
 73
     3
  0
LINE
  5
21B
  8
DATA
  6
CONTINUOUS
 62
     7
 10
372.52219174370322
 20
282.72959143400089
 30
0.0
 11
370.33887321227292
 21
282.72959143400089
 31
0.0
  0
LINE
  5
21C
  8
DATA
  6
CONTINUOUS
 62
     7
 10
370.33887321227292
 20
282.72959143400089
 30
0.0
 11
369.59693772840188
 21
281.72959143400078
 31
0.0
  0
TEXT
  5
21D
  8
DATA
 62
     7
 10
359.71588040640847
 20
243.436582867266
 30
0.0
 40
2.7147352430555549
  1
P48
 41
0.7
 11
359.71588040640847
 21
246.1513181103216
 31
0.0
 73
     3
  0
ARC
  5
21E
  8
DATA
  6
CONTINUOUS
 62
     7
 10
351.5
 20
200.5
 30
0.0
 40
0.5
 50
180.0
 51
270.0
  0
ARC
  5
21F
  8
DATA
  6
CONTINUOUS
 62
     7
 10
351.5
 20
201.5
 30
0.0
 40
0.5
 50
90.0
 51
180.0
  0
ARC
  5
220
  8
DATA
  6
CONTINUOUS
 62
     7
 10
373.5
 20
201.5
 30
0.0
 40
0.5
 50
0.0
 51
90.0
  0
ARC
  5
221
  8
DATA
  6
CONTINUOUS
 62
     7
 10
373.5
 20
200.5
 30
0.0
 40
0.5
 50
270.0
 51
0.0
  0
LINE
  5
222
  8
DATA
  6
CONTINUOUS
 62
     7
 10
161.0
 20
200.0
 30
0.0
 11
139.0
 21
200.0
 31
0.0
  0
LINE
  5
223
  8
DATA
  6
CONTINUOUS
 62
     7
 10
169.31986239056911
 20
242.0
 30
0.0
 11
130.6801376094308
 21
242.0
 31
0.0
  0
LINE
  5
224
  8
DATA
  6
CONTINUOUS
 62
     7
 10
139.0
 20
202.0
 30
0.0
 11
139.0
 21
242.0
 31
0.0
  0
LINE
  5
225
  8
DATA
  6
CONTINUOUS
 62
     7
 10
161.0
 20
242.0
 30
0.0
 11
161.0
 21
202.0
 31
0.0
  0
LINE
  5
226
  8
DATA
  6
CONTINUOUS
 62
     7
 10
138.5
 20
200.5
 30
0.0
 11
138.5
 21
201.5
 31
0.0
  0
LINE
  5
227
  8
DATA
  6
CONTINUOUS
 62
     7
 10
161.5
 20
201.5
 30
0.0
 11
161.5
 21
200.5
 31
0.0
  0
LINE
  5
228
  8
DATA
  6
CONTINUOUS
 62
     7
 10
139.0
 20
202.0
 30
0.0
 11
161.0
 21
202.0
 31
0.0
  0
LINE
  5
229
  8
DATA
  6
CONTINUOUS
 62
     7
 10
128.8844030182695
 20
243.67615623509229
 30
0.0
 11
125.0
 21
300.0
 31
0.0
  0
LINE
  5
22A
  8
DATA
  6
CONTINUOUS
 62
     7
 10
171.1155969817305
 20
243.67615623509229
 30
0.0
 11
175.0
 21
300.0
 31
0.0
  0
LINE
  5
22B
  8
DATA
  6
CONTINUOUS
 62
     7
 10
125.0
 20
300.0
 30
0.0
 11
127.40339356091761
 21
357.68144546202439
 31
0.0
  0
LINE
  5
22C
  8
DATA
  6
CONTINUOUS
 62
     7
 10
175.0
 20
300.0
 30
0.0
 11
172.59660643908231
 21
357.68144546202348
 31
0.0
  0
ARC
  5
22D
  8
DATA
  6
CONTINUOUS
 62
     7
 10
150.0
 20
105.4366319444439
 30
0.0
 40
254.56336805555611
 50
85.217696828262646
 51
94.782303171737297
  0
ARC
  5
22E
  8
DATA
  6
CONTINUOUS
 62
     7
 10
128.90209317055979
 20
357.61899964495598
 30
0.0
 40
1.500000000003606
 50
94.782303171873778
 51
177.6140559696112
  0
ARC
  5
22F
  8
DATA
  6
CONTINUOUS
 62
     7
 10
171.09790682943921
 20
357.61899964495501
 30
0.0
 40
1.5000000000046581
 50
2.3859440303887669
 51
85.217696828085991
  0
LINE
  5
230
  8
DATA
  6
CONTINUOUS
 62
     7
 10
126.20051623866721
 20
300.01238972801372
 30
0.0
 11
128.56468112672221
 21
356.75234704133322
 31
0.0
  0
LINE
  5
231
  8
DATA
  6
CONTINUOUS
 62
     7
 10
173.79948376133279
 20
300.01238972801002
 30
0.0
 11
171.43531887327799
 21
356.75234704132691
 31
0.0
  0
ARC
  5
232
  8
DATA
  6
CONTINUOUS
 62
     7
 10
150.0
 20
104.2366319444439
 30
0.0
 40
254.56336805555611
 50
85.439717953155011
 51
94.56028204684479
  0
ARC
  5
233
  8
DATA
  6
CONTINUOUS
 62
     7
 10
129.8635541217341
 20
356.69822733320768
 30
0.0
 40
1.299999999991849
 50
94.560282046488126
 51
177.6140559696112
  0
ARC
  5
234
  8
DATA
  6
CONTINUOUS
 62
     7
 10
170.13644587825891
 20
356.69822733320109
 30
0.0
 40
1.2999999999991081
 50
2.3859440303887469
 51
85.439717953195441
  0
ARC
  5
235
  8
DATA
  6
CONTINUOUS
 62
     7
 10
130.6801376094308
 20
243.80000000000001
 30
0.0
 40
1.7999999999999921
 50
183.9451862290374
 51
270.0
  0
ARC
  5
236
  8
DATA
  6
CONTINUOUS
 62
     7
 10
169.31986239056911
 20
243.80000000000001
 30
0.0
 40
1.7999999999999969
 50
270.0
 51
356.05481377096248
  0
ARC
  5
237
  8
DATA
  6
CONTINUOUS
 62
     7
 10
150.0
 20
612.10626113962996
 30
0.0
 40
313.00000000000011
 50
265.4187799147229
 51
274.58122008527698
  0
LINE
  5
238
  8
DATA
  6
CONTINUOUS
 62
     7
 10
137.56969259424471
 20
299.3531836842696
 30
0.0
 11
138.71350798051159
 21
288.22603433650318
 31
0.0
  0
LINE
  5
239
  8
DATA
  6
CONTINUOUS
 62
     7
 10
141.1510541400535
 20
291.52481085004581
 30
0.0
 11
139.1510541400535
 21
293.12481085004572
 31
0.0
  0
LINE
  5
23A
  8
DATA
  6
CONTINUOUS
 62
     7
 10
141.1510541400535
 20
294.7248108500458
 30
0.0
 11
139.1510541400535
 21
293.12481085004572
 31
0.0
  0
LINE
  5
23B
  8
DATA
  6
CONTINUOUS
 62
     7
 10
141.1510541400535
 20
291.52481085004581
 30
0.0
 11
141.1510541400535
 21
294.7248108500458
 31
0.0
  0
LINE
  5
23C
  8
DATA
  6
CONTINUOUS
 62
     7
 10
162.38020032234229
 20
299.35119620865453
 30
0.0
 11
161.23658923864369
 21
288.22603433650318
 31
0.0
  0
LINE
  5
23D
  8
DATA
  6
CONTINUOUS
 62
     7
 10
158.79905609539281
 20
291.52493747381368
 30
0.0
 11
160.79905609539281
 21
293.1249374738137
 31
0.0
  0
LINE
  5
23E
  8
DATA
  6
CONTINUOUS
 62
     7
 10
158.79905609539281
 20
294.72493747381372
 30
0.0
 11
160.79905609539281
 21
293.1249374738137
 31
0.0
  0
LINE
  5
23F
  8
DATA
  6
CONTINUOUS
 62
     7
 10
158.79905609539281
 20
291.52493747381368
 30
0.0
 11
158.79905609539281
 21
294.72493747381372
 31
0.0
  0
ARC
  5
240
  8
DATA
  6
CONTINUOUS
 62
     7
 10
139.0
 20
200.5
 30
0.0
 40
0.5
 50
180.0
 51
270.0
  0
ARC
  5
241
  8
DATA
  6
CONTINUOUS
 62
     7
 10
139.0
 20
201.5
 30
0.0
 40
0.5
 50
90.0
 51
180.0
  0
ARC
  5
242
  8
DATA
  6
CONTINUOUS
 62
     7
 10
161.0
 20
201.5
 30
0.0
 40
0.5
 50
0.0
 51
90.0
  0
ARC
  5
243
  8
DATA
  6
CONTINUOUS
 62
     7
 10
161.0
 20
200.5
 30
0.0
 40
0.5
 50
270.0
 51
0.0
  0
ARC
  5
244
  8
DATA
  6
CONTINUOUS
 62
     7
 10
150.0
 20
609.63397680673484
 30
0.0
 40
312.99999999999989
 50
267.77073479977679
 51
272.22008677343359
  0
TEXT
  5
245
  8
DATA
 62
     7
 10
145.62304286269929
 20
291.3743473376357
 30
0.0
 40
3.3934190538194442
  1
XLII
 41
0.7
 11
145.62304286269929
 21
294.76776639145521
 31
0.0
 73
     3
  0
LINE
  5
246
  8
DATA
  6
CONTINUOUS
 62
     7
 10
255.0
 20
200.0
 30
0.0
 11
233.0
 21
200.0
 31
0.0
  0
LINE
  5
247
  8
DATA
  6
CONTINUOUS
 62
     7
 10
233.0
 20
202.0
 30
0.0
 11
233.0
 21
242.0
 31
0.0
  0
LINE
  5
248
  8
DATA
  6
CONTINUOUS
 62
     7
 10
255.0
 20
242.0
 30
0.0
 11
255.0
 21
202.0
 31
0.0
  0
LINE
  5
249
  8
DATA
  6
CONTINUOUS
 62
     7
 10
232.5
 20
200.5
 30
0.0
 11
232.5
 21
201.5
 31
0.0
  0
LINE
  5
24A
  8
DATA
  6
CONTINUOUS
 62
     7
 10
233.0
 20
202.0
 30
0.0
 11
255.0
 21
202.0
 31
0.0
  0
ARC
  5
24B
  8
DATA
  6
CONTINUOUS
 62
     7
 10
233.0
 20
200.5
 30
0.0
 40
0.5
 50
180.0
 51
270.0
  0
ARC
  5
24C
  8
DATA
  6
CONTINUOUS
 62
     7
 10
233.0
 20
201.5
 30
0.0
 40
0.5
 50
90.0
 51
180.0
  0
LINE
  5
24D
  8
DATA
  6
STYLE_01
 62
     7
 10
119.4999999999999
 20
286.75763163309352
 30
0.0
 11
180.5
 21
286.75763163309352
 31
0.0
  0
ARC
  5
24E
  8
DATA
  6
STYLE_01
 62
     7
 10
149.99999999999989
 20
245.6828185628876
 30
0.0
 40
123.07481307020581
 50
76.609311163382884
 51
103.39068883661329
  0
LINE
  5
24F
  8
DATA
  6
STYLE_01
 62
     7
 10
119.96095885864651
 20
363.51711140464812
 30
0.0
 11
118.03832019571681
 21
288.25763163309352
 31
0.0
  0
LINE
  5
250
  8
DATA
  6
STYLE_01
 62
     7
 10
180.03904114135409
 20
363.51711140461708
 30
0.0
 11
181.96167980428311
 21
288.25763163309352
 31
0.0
  0
LINE
  5
251
  8
DATA
  6
STYLE_01
 62
     7
 10
119.4999999999999
 20
286.75763163309352
 30
0.0
 11
118.03832019571681
 21
288.25763163309352
 31
0.0
  0
LINE
  5
252
  8
DATA
  6
STYLE_01
 62
     7
 10
180.5
 20
286.75763163309352
 30
0.0
 11
181.96167980428311
 21
288.25763163309352
 31
0.0
  0
ARC
  5
253
  8
DATA
  6
STYLE_01
 62
     7
 10
121.9603065390572
 20
363.4660344750352
 30
0.0
 40
1.999999999975534
 50
103.3906888359362
 51
178.5365946465449
  0
ARC
  5
254
  8
DATA
  6
STYLE_01
 62
     7
 10
178.03969346090329
 20
363.46603447500331
 30
0.0
 40
2.0000000000157478
 50
1.4634053534550071
 51
76.609311162946895
  0
ARC
  5
255
  8
DATA
  6
STYLE_01
 62
     7
 10
123.572723280292
 20
453.88142811882977
 30
0.0
 40
1.9999999999999889
 50
101.7467055531731
 51
161.97305154354319
  0
ARC
  5
256
  8
DATA
  6
STYLE_01
 62
     7
 10
192.03832019571681
 20
431.60000000000002
 30
0.0
 40
74.000000000000028
 50
161.97305154354279
 51
198.02694845645721
  0
ARC
  5
257
  8
DATA
  6
STYLE_01
 62
     7
 10
176.42727671970781
 20
453.8814281188296
 30
0.0
 40
2.000000000000028
 50
18.0269484564568
 51
78.253294446826189
  0
ARC
  5
258
  8
DATA
  6
STYLE_01
 62
     7
 10
150.0
 20
326.79074375379082
 30
0.0
 40
131.80925624620929
 50
78.253294446827098
 51
101.7467055531728
  0
ARC
  5
259
  8
DATA
  6
STYLE_01
 62
     7
 10
123.572723280292
 20
409.31857188116999
 30
0.0
 40
2.0000000000000049
 50
198.0269484564574
 51
258.25329444682711
  0
ARC
  5
25A
  8
DATA
  6
STYLE_01
 62
     7
 10
150.0
 20
536.40925624620922
 30
0.0
 40
131.8092562462092
 50
258.25329444682711
 51
281.74670555317277
  0
ARC
  5
25B
  8
DATA
  6
STYLE_01
 62
     7
 10
176.42727671970781
 20
409.31857188116999
 30
0.0
 40
2.00000000000002
 50
281.7467055531734
 51
341.97305154354268
  0
ARC
  5
25C
  8
DATA
  6
STYLE_01
 62
     7
 10
107.96167980428309
 20
431.60000000000002
 30
0.0
 40
74.000000000000014
 50
341.97305154354279
 51
18.026948456457198
  0
LINE
  5
25D
  8
DATA
  6
CONTINUOUS
 62
     7
 10
159.909535496985
 20
368.35804311332453
 30
0.0
 11
175.0
 21
387.5
 31
0.0
  0
LINE
  5
25E
  8
DATA
  6
CONTINUOUS
 62
     7
 10
159.909535496985
 20
368.35804311332453
 30
0.0
 11
163.2518957658034
 21
375.86510718872688
 31
0.0
  0
LINE
  5
25F
  8
DATA
  6
CONTINUOUS
 62
     7
 10
159.909535496985
 20
368.35804311332453
 30
0.0
 11
166.55763643608279
 21
373.18817117605141
 31
0.0
  0
LINE
  5
260
  8
DATA
  6
CONTINUOUS
 62
     7
 10
175.0
 20
387.5
 30
0.0
 11
159.909535496985
 21
404.97303164122121
 31
0.0
  0
LINE
  5
261
  8
DATA
  6
CONTINUOUS
 62
     7
 10
159.909535496985
 20
404.97303164122121
 30
0.0
 11
166.7221556310142
 21
400.37786133880633
 31
0.0
  0
LINE
  5
262
  8
DATA
  6
CONTINUOUS
 62
     7
 10
159.909535496985
 20
404.97303164122121
 30
0.0
 11
163.51185244818021
 21
397.5871873575997
 31
0.0
  0
TEXT
  5
263
  8
DATA
 62
     7
 10
179.59999999999999
 20
389.41047953169817
 30
0.0
 40
6.7868381076388884
  1
ウインドスクリーン
 41
0.7
 11
179.59999999999999
 21
396.19731763933709
 31
0.0
 73
     3
  0
LINE
  5
264
  8
DATA
  6
CONTINUOUS
 62
     7
 10
175.0
 20
387.5
 30
0.0
 11
262.19999999999999
 21
387.5
 31
0.0
  0
TEXT
  5
265
  8
DATA
 62
     7
 10
353.65334885345811
 20
260.1994713367223
 30
0.0
 40
5.4294704861111107
  1
C414B
 41
0.7
 11
353.65334885345811
 21
265.62894182283338
 31
0.0
 73
     3
  0
CIRCLE
  5
266
  8
DATA
  6
CONTINUOUS
 62
     7
 10
362.5
 20
328.05432669522509
 30
0.0
 40
16.0
  0
CIRCLE
  5
267
  8
DATA
  6
CONTINUOUS
 62
     7
 10
362.5
 20
328.05432669522509
 30
0.0
 40
14.5
  0
CIRCLE
  5
268
  8
DATA
  6
CONTINUOUS
 62
     7
 10
150.0
 20
217.0
 30
0.0
 40
2.0
  0
LINE
  5
269
  8
DATA
  6
CONTINUOUS
 62
     7
 10
148.92519769259641
 20
217.0
 30
0.0
 11
151.0748023074035
 21
217.0
 31
0.0
  0
LINE
  5
26A
  8
DATA
  6
CONTINUOUS
 62
     7
 10
150.0
 20
215.92519769259641
 30
0.0
 11
150.0
 21
218.07480230740359
 31
0.0
  0
LINE
  5
26B
  8
DATA
  6
CONTINUOUS
 62
     7
 10
138.6107025071918
 20
289.22613616161482
 30
0.0
 11
161.33939471196339
 21
289.22613616161482
 31
0.0
  0
LINE
  5
26C
  8
DATA
  6
CONTINUOUS
 62
     7
 10
138.71350798051159
 20
288.22603433650318
 30
0.0
 11
161.23658923864369
 21
288.22603433650318
 31
0.0
  0
CIRCLE
  5
26D
  8
DATA
  6
CONTINUOUS
 62
     7
 10
140.01023581985109
 20
284.22014637094168
 30
0.0
 40
1.5
  0
LINE
  5
26E
  8
DATA
  6
CONTINUOUS
 62
     7
 10
146.70013552865009
 20
284.163653541325
 30
0.0
 11
146.70013552865009
 21
283.74332439106541
 31
0.0
  0
LINE
  5
26F
  8
DATA
  6
CONTINUOUS
 62
     7
 10
143.30013552865
 20
283.74332439106541
 30
0.0
 11
143.30013552865
 21
284.163653541325
 31
0.0
  0
ARC
  5
270
  8
DATA
  6
CONTINUOUS
 62
     7
 10
145.00013552865011
 20
284.03444222579469
 30
0.0
 40
1.7049033884830791
 50
4.3465035360998501
 51
175.6534964639001
  0
ARC
  5
271
  8
DATA
  6
CONTINUOUS
 62
     7
 10
145.00013552865011
 20
278.39898212917632
 30
0.0
 40
5.2246714121486653
 50
75.320684267071684
 51
104.6793157329286
  0
LINE
  5
272
  8
DATA
  6
CONTINUOUS
 62
     7
 10
151.69769844127541
 20
284.11686266374647
 30
0.0
 11
151.69769844127541
 21
283.98074087882128
 31
0.0
  0
LINE
  5
273
  8
DATA
  6
CONTINUOUS
 62
     7
 10
148.29769844127549
 20
283.98074087882128
 30
0.0
 11
148.29769844127549
 21
284.11686266374647
 31
0.0
  0
ARC
  5
274
  8
DATA
  6
CONTINUOUS
 62
     7
 10
149.9976984412755
 20
283.9876513482161
 30
0.0
 40
1.7049033884830651
 50
4.3465035360998883
 51
175.6534964639001
  0
ARC
  5
275
  8
DATA
  6
CONTINUOUS
 62
     7
 10
143.6001355286501
 20
283.74332439106541
 30
0.0
 40
0.3000000000000114
 50
180.0
 51
284.67931573292572
  0
ARC
  5
276
  8
DATA
  6
CONTINUOUS
 62
     7
 10
146.40013552865011
 20
283.74332439106541
 30
0.0
 40
0.2999999999999859
 50
255.32068426707369
 51
0.0
  0
ARC
  5
277
  8
DATA
  6
CONTINUOUS
 62
     7
 10
149.9976984412755
 20
281.95172301054731
 30
0.0
 40
2.1651396531992169
 50
55.394751612327042
 51
124.6052483876729
  0
ARC
  5
278
  8
DATA
  6
CONTINUOUS
 62
     7
 10
148.5976984412755
 20
283.98074087882128
 30
0.0
 40
0.2999999999999972
 50
180.0
 51
304.6052483876727
  0
ARC
  5
279
  8
DATA
  6
CONTINUOUS
 62
     7
 10
151.39769844127551
 20
283.98074087882128
 30
0.0
 40
0.3000000000000021
 50
235.394751612325
 51
0.0
  0
ARC
  5
27A
  8
DATA
  6
CONTINUOUS
 62
     7
 10
155.00131817164851
 20
284.5482731101032
 30
0.0
 40
1.1500000000000621
 50
292.30994262922019
 51
247.69005737078581
  0
ARC
  5
27B
  8
DATA
  6
CONTINUOUS
 62
     7
 10
155.00131817164851
 20
283.2508011227049
 30
0.0
 40
0.4951086844944649
 50
151.8534868296824
 51
28.146513170324901
  0
CIRCLE
  5
27C
  8
DATA
  6
CONTINUOUS
 62
     7
 10
159.98019245068301
 20
284.7282893735412
 30
0.0
 40
1.0
  0
CIRCLE
  5
27D
  8
DATA
  6
CONTINUOUS
 62
     7
 10
159.98019245068301
 20
282.7282893735412
 30
0.0
 40
1.0
  0
LINE
  5
27E
  8
DATA
  6
CONTINUOUS
 62
     7
 10
238.98619596159909
 20
360.0
 30
0.0
 11
249.01380403840091
 21
360.0
 31
0.0
  0
LINE
  5
27F
  8
DATA
  6
CONTINUOUS
 62
     7
 10
229.2242209140764
 20
242.0
 30
0.0
 11
258.7757790859236
 21
242.0
 31
0.0
  0
LINE
  5
280
  8
DATA
  6
CONTINUOUS
 62
     7
 10
227.4258846110508
 20
243.72262725789969
 30
0.0
 11
225.0
 21
300.10626113963002
 31
0.0
  0
LINE
  5
281
  8
DATA
  6
CONTINUOUS
 62
     7
 10
260.57411538894922
 20
243.72262725789969
 30
0.0
 11
263.0
 21
300.10626113963002
 31
0.0
  0
LINE
  5
282
  8
DATA
  6
CONTINUOUS
 62
     7
 10
255.0
 20
202.0
 30
0.0
 11
255.0
 21
200.0
 31
0.0
  0
LINE
  5
283
  8
DATA
  6
CONTINUOUS
 62
     7
 10
249.5
 20
202.0
 30
0.0
 11
249.5
 21
200.0
 31
0.0
  0
LINE
  5
284
  8
DATA
  6
CONTINUOUS
 62
     7
 10
140.5
 20
200.0
 30
0.0
 11
140.5
 21
202.0
 31
0.0
  0
LINE
  5
285
  8
DATA
  6
CONTINUOUS
 62
     7
 10
159.5
 20
200.0
 30
0.0
 11
159.5
 21
202.0
 31
0.0
  0
LINE
  5
286
  8
DATA
  6
CONTINUOUS
 62
     7
 10
231.88428962210719
 20
358.80000000000001
 30
0.0
 11
238.46639999999999
 21
358.80000000000001
 31
0.0
  0
LINE
  5
287
  8
DATA
  6
CONTINUOUS
 62
     7
 10
249.53360000000001
 20
358.80000000000001
 30
0.0
 11
256.11571037789281
 21
358.80000000000001
 31
0.0
  0
LINE
  5
288
  8
DATA
  6
CONTINUOUS
 62
     7
 10
226.5063064833885
 20
300.2120185936671
 30
0.0
 11
229.8878360912249
 21
356.91905166536952
 31
0.0
  0
LINE
  5
289
  8
DATA
  6
CONTINUOUS
 62
     7
 10
261.49369351661147
 20
300.21201859366749
 30
0.0
 11
258.11216390877507
 21
356.91905166536952
 31
0.0
  0
LINE
  5
28A
  8
DATA
  6
CONTINUOUS
 62
     7
 10
238.8067838463962
 20
297.5
 30
0.0
 11
249.1932161536038
 21
297.5
 31
0.0
  0
LINE
  5
28B
  8
DATA
  6
CONTINUOUS
 62
     7
 10
238.4863918464263
 20
359.51399451522479
 30
0.0
 11
236.8075673857052
 21
299.55597806089929
 31
0.0
  0
LINE
  5
28C
  8
DATA
  6
CONTINUOUS
 62
     7
 10
249.5136081535737
 20
359.51399451522479
 30
0.0
 11
251.19243261429489
 21
299.55597806089929
 31
0.0
  0
ARC
  5
28D
  8
DATA
  6
CONTINUOUS
 62
     7
 10
238.80678384639631
 20
299.5
 30
0.0
 40
2.0000000000000049
 50
178.39613722884511
 51
269.99999999999977
  0
ARC
  5
28E
  8
DATA
  6
CONTINUOUS
 62
     7
 10
249.1932161536038
 20
299.5
 30
0.0
 40
2.0
 50
270.0
 51
1.6038627711549791
  0
ARC
  5
28F
  8
DATA
  6
CONTINUOUS
 62
     7
 10
244.0
 20
40.268772577055522
 30
0.0
 40
260.53122742294443
 50
85.817825349864506
 51
88.425103098928304
  0
ARC
  5
290
  8
DATA
  6
CONTINUOUS
 62
     7
 10
244.0
 20
40.268772577055522
 30
0.0
 40
260.53122742294443
 50
91.574896901071824
 51
94.182174650135423
  0
LINE
  5
291
  8
DATA
  6
CONTINUOUS
 62
     7
 10
225.23088136434799
 20
294.74000000000001
 30
0.0
 11
225.23088136434799
 21
289.43026836029588
 31
0.0
  0
LINE
  5
292
  8
DATA
  6
CONTINUOUS
 62
     7
 10
262.76911863565209
 20
294.74000000000001
 30
0.0
 11
262.76911863565209
 21
289.46748008958519
 31
0.0
  0
LINE
  5
293
  8
DATA
  6
CONTINUOUS
 62
     7
 10
262.76911863565209
 20
289.46748008958519
 30
0.0
 11
262.54227045238378
 21
289.46748008958519
 31
0.0
  0
LINE
  5
294
  8
DATA
  6
CONTINUOUS
 62
     7
 10
225.23088136434799
 20
289.43026836029588
 30
0.0
 11
225.45933056825319
 21
289.43026836029588
 31
0.0
  0
LINE
  5
295
  8
DATA
  6
CONTINUOUS
 62
     7
 10
175.0
 20
425.85000000000002
 30
0.0
 11
125.0
 21
425.85000000000002
 31
0.0
  0
LINE
  5
296
  8
DATA
  6
CONTINUOUS
 62
     7
 10
125.0
 20
437.14999999999998
 30
0.0
 11
175.0
 21
437.14999999999998
 31
0.0
  0
LINE
  5
297
  8
DATA
  6
CONTINUOUS
 62
     7
 10
170.5
 20
441.72016060183307
 30
0.0
 11
170.5
 21
437.14999999999998
 31
0.0
  0
LINE
  5
298
  8
DATA
  6
CONTINUOUS
 62
     7
 10
129.5
 20
437.14999999999998
 30
0.0
 11
129.5
 21
441.72016060183307
 31
0.0
  0
LINE
  5
299
  8
DATA
  6
CONTINUOUS
 62
     7
 10
129.5
 20
421.2798393981667
 30
0.0
 11
129.5
 21
425.85000000000002
 31
0.0
  0
LINE
  5
29A
  8
DATA
  6
CONTINUOUS
 62
     7
 10
170.5
 20
425.85000000000002
 30
0.0
 11
170.5
 21
421.2798393981667
 31
0.0
  0
LINE
  5
29B
  8
DATA
  6
CONTINUOUS
 62
     7
 10
125.0
 20
415.16598639530332
 30
0.0
 11
125.0
 21
447.83401360469651
 31
0.0
  0
LINE
  5
29C
  8
DATA
  6
CONTINUOUS
 62
     7
 10
175.0
 20
415.16598639530332
 30
0.0
 11
175.0
 21
447.83401360469651
 31
0.0
  0
ARC
  5
29D
  8
DATA
  6
CONTINUOUS
 62
     7
 10
231.88428962210719
 20
356.80000000000001
 30
0.0
 40
2.0
 50
90.0
 51
176.58740366535579
  0
ARC
  5
29E
  8
DATA
  6
CONTINUOUS
 62
     7
 10
256.11571037789281
 20
356.80000000000001
 30
0.0
 40
2.0000000000000031
 50
3.412596334644237
 51
89.999999999999915
  0
ARC
  5
29F
  8
DATA
  6
CONTINUOUS
 62
     7
 10
229.2242209140764
 20
243.80000000000001
 30
0.0
 40
1.800000000000004
 50
182.4636099385371
 51
269.99999999999977
  0
ARC
  5
2A0
  8
DATA
  6
CONTINUOUS
 62
     7
 10
258.7757790859236
 20
243.80000000000001
 30
0.0
 40
1.7999999999999821
 50
270.0
 51
357.53639006146329
  0
ARC
  5
2A1
  8
DATA
  6
CONTINUOUS
 62
     7
 10
150.0
 20
137.5
 30
0.0
 40
313.0
 50
85.724625795503982
 51
94.275374204496046
  0
ARC
  5
2A2
  8
DATA
  6
CONTINUOUS
 62
     7
 10
150.0
 20
725.49999999999989
 30
0.0
 40
313.0
 50
265.72462579550398
 51
274.27537420449607
  0
ARC
  5
2A3
  8
DATA
  6
CONTINUOUS
 62
     7
 10
126.8
 20
447.83401360469651
 30
0.0
 40
1.8000000000000189
 50
94.275374204496401
 51
180.0
  0
ARC
  5
2A4
  8
DATA
  6
CONTINUOUS
 62
     7
 10
173.19999999999999
 20
447.83401360469651
 30
0.0
 40
1.7999999999999969
 50
0.0
 51
85.724625795504025
  0
ARC
  5
2A5
  8
DATA
  6
CONTINUOUS
 62
     7
 10
126.8
 20
415.16598639530332
 30
0.0
 40
1.8000000000000109
 50
180.0
 51
265.72462579550358
  0
ARC
  5
2A6
  8
DATA
  6
CONTINUOUS
 62
     7
 10
173.19999999999999
 20
415.16598639530332
 30
0.0
 40
1.80000000000002
 50
274.27537420449693
 51
0.0
  0
ARC
  5
2A7
  8
DATA
  6
CONTINUOUS
 62
     7
 10
150.0
 20
136.30000000000001
 30
0.0
 40
313.0
 50
85.946145734786811
 51
94.053854265213204
  0
ARC
  5
2A8
  8
DATA
  6
CONTINUOUS
 62
     7
 10
150.0
 20
726.70000000000005
 30
0.0
 40
313.0
 50
265.9461457347868
 51
274.0538542652132
  0
LINE
  5
2A9
  8
DATA
  6
CONTINUOUS
 62
     7
 10
126.2
 20
416.27860898449671
 30
0.0
 11
126.2
 21
425.85000000000002
 31
0.0
  0
LINE
  5
2AA
  8
DATA
  6
CONTINUOUS
 62
     7
 10
126.2
 20
437.14999999999998
 30
0.0
 11
126.2
 21
446.72139101550317
 31
0.0
  0
LINE
  5
2AB
  8
DATA
  6
CONTINUOUS
 62
     7
 10
173.80000000000001
 20
416.27860898449671
 30
0.0
 11
173.80000000000001
 21
425.85000000000002
 31
0.0
  0
LINE
  5
2AC
  8
DATA
  6
CONTINUOUS
 62
     7
 10
173.80000000000001
 20
437.14999999999998
 30
0.0
 11
173.80000000000001
 21
446.72139101550317
 31
0.0
  0
ARC
  5
2AD
  8
DATA
  6
CONTINUOUS
 62
     7
 10
128.0
 20
446.72139101550317
 30
0.0
 40
1.8000000000000489
 50
94.053854265214383
 51
180.0
  0
ARC
  5
2AE
  8
DATA
  6
CONTINUOUS
 62
     7
 10
128.0
 20
416.27860898449671
 30
0.0
 40
1.8000000000000389
 50
180.0
 51
265.94614573478549
  0
ARC
  5
2AF
  8
DATA
  6
CONTINUOUS
 62
     7
 10
171.99999999999989
 20
446.72139101550317
 30
0.0
 40
1.800000000000068
 50
0.0
 51
85.946145734784679
  0
ARC
  5
2B0
  8
DATA
  6
CONTINUOUS
 62
     7
 10
171.99999999999989
 20
416.27860898449671
 30
0.0
 40
1.8000000000000489
 50
274.0538542652144
 51
0.0
  0
ARC
  5
2B1
  8
DATA
  6
CONTINUOUS
 62
     7
 10
150.0
 20
234.375
 30
0.0
 40
210.625
 50
85.038490904742176
 51
94.961509095257867
  0
ARC
  5
2B2
  8
DATA
  6
CONTINUOUS
 62
     7
 10
150.0
 20
628.62499999999989
 30
0.0
 40
210.625
 50
265.03849090474222
 51
274.96150909525778
  0
ARC
  5
2B3
  8
DATA
  6
CONTINUOUS
 62
     7
 10
132.0
 20
441.72016060183307
 30
0.0
 40
2.4999999999999929
 50
94.961509095258052
 51
180.0
  0
ARC
  5
2B4
  8
DATA
  6
CONTINUOUS
 62
     7
 10
168.0
 20
441.72016060183307
 30
0.0
 40
2.4999999999999849
 50
0.0
 51
85.038490904742275
  0
ARC
  5
2B5
  8
DATA
  6
CONTINUOUS
 62
     7
 10
132.0
 20
421.2798393981667
 30
0.0
 40
2.5
 50
180.0
 51
265.03849090474199
  0
ARC
  5
2B6
  8
DATA
  6
CONTINUOUS
 62
     7
 10
168.0
 20
421.2798393981667
 30
0.0
 40
2.4999999999999609
 50
274.9615090952571
 51
0.0
  0
ARC
  5
2B7
  8
DATA
  6
CONTINUOUS
 62
     7
 10
150.0
 20
106.5
 30
0.0
 40
11.500000000000011
 50
167.44414220141391
 51
12.555857798586111
  0
CIRCLE
  5
2B8
  8
DATA
  6
CONTINUOUS
 62
     7
 10
150.0
 20
106.5
 30
0.0
 40
8.0
  0
POLYLINE
  5
2B9
  8
DATA
  6
CONTINUOUS
 62
     7
 66
     1
 10
0.0
 20
0.0
 30
0.0
 70
   129
  0
VERTEX
  5
38C
  8
DATA
  6
CONTINUOUS
 62
     7
 10
129.5
 20
119.5
 30
0.0
 42
-0.4142135623730951
  0
VERTEX
  5
38D
  8
DATA
  6
CONTINUOUS
 62
     7
 10
131.5
 20
121.5
 30
0.0
  0
VERTEX
  5
38E
  8
DATA
  6
CONTINUOUS
 62
     7
 10
168.5
 20
121.5
 30
0.0
 42
-0.4142135623730951
  0
VERTEX
  5
38F
  8
DATA
  6
CONTINUOUS
 62
     7
 10
170.5
 20
119.5
 30
0.0
  0
VERTEX
  5
390
  8
DATA
  6
CONTINUOUS
 62
     7
 10
170.5
 20
93.499999999999986
 30
0.0
 42
-0.4142135623730951
  0
VERTEX
  5
391
  8
DATA
  6
CONTINUOUS
 62
     7
 10
168.5
 20
91.5
 30
0.0
  0
VERTEX
  5
392
  8
DATA
  6
CONTINUOUS
 62
     7
 10
131.5
 20
91.5
 30
0.0
 42
-0.4142135623730951
  0
VERTEX
  5
393
  8
DATA
  6
CONTINUOUS
 62
     7
 10
129.5
 20
93.499999999999986
 30
0.0
  0
SEQEND
  5
394
  8
DATA
  6
CONTINUOUS
 62
     7
  0
CIRCLE
  5
2C3
  8
DATA
  6
CONTINUOUS
 62
     7
 10
154.0
 20
106.49563543692101
 30
0.0
 40
1.150000000000005
  0
CIRCLE
  5
2C4
  8
DATA
  6
CONTINUOUS
 62
     7
 10
146.0
 20
106.49563543692101
 30
0.0
 40
1.150000000000005
  0
CIRCLE
  5
2C5
  8
DATA
  6
CONTINUOUS
 62
     7
 10
150.0
 20
110.49563543692101
 30
0.0
 40
1.150000000000005
  0
CIRCLE
  5
2C6
  8
DATA
  6
CONTINUOUS
 62
     7
 10
165.0
 20
116.5
 30
0.0
 40
3.0
  0
LINE
  5
2C7
  8
DATA
  6
CONTINUOUS
 62
     7
 10
164.2363246763185
 20
116.5
 30
0.0
 11
165.76367532367971
 21
116.5
 31
0.0
  0
LINE
  5
2C8
  8
DATA
  6
CONTINUOUS
 62
     7
 10
165.0
 20
115.7363246763186
 30
0.0
 11
165.0
 21
117.26367532368209
 31
0.0
  0
CIRCLE
  5
2C9
  8
DATA
  6
CONTINUOUS
 62
     7
 10
135.0
 20
96.5
 30
0.0
 40
3.0
  0
LINE
  5
2CA
  8
DATA
  6
CONTINUOUS
 62
     7
 10
134.2363246763185
 20
96.5
 30
0.0
 11
135.76367532367971
 21
96.5
 31
0.0
  0
LINE
  5
2CB
  8
DATA
  6
CONTINUOUS
 62
     7
 10
135.0
 20
95.736324676318503
 30
0.0
 11
135.0
 21
97.263675323682065
 31
0.0
  0
ARC
  5
2CC
  8
DATA
  6
CONTINUOUS
 62
     7
 10
150.0
 20
-163.0
 30
0.0
 40
288.5
 50
85.642424889312124
 51
94.340748876440927
  0
ARC
  5
2CD
  8
DATA
  6
CONTINUOUS
 62
     7
 10
150.0
 20
376.0
 30
0.0
 40
288.5
 50
265.64242488931222
 51
274.3407488764409
  0
ARC
  5
2CE
  8
DATA
  6
CONTINUOUS
 62
     7
 10
128.2695096581682
 20
90.826744259733232
 30
0.0
 40
2.5000000000000231
 50
185.621586393858
 51
265.64242488931143
  0
ARC
  5
2CF
  8
DATA
  6
CONTINUOUS
 62
     7
 10
171.73049034183171
 20
122.1732557402667
 30
0.0
 40
2.5000000000000591
 50
5.6215863938598734
 51
85.642424889310945
  0
ARC
  5
2D0
  8
DATA
  6
CONTINUOUS
 62
     7
 10
128.36082712405531
 20
122.0799119496932
 30
0.0
 40
2.600000000000108
 50
94.340748876441538
 51
174.4084946432277
  0
ARC
  5
2D1
  8
DATA
  6
CONTINUOUS
 62
     7
 10
171.63917287594461
 20
90.920088050306575
 30
0.0
 40
2.6000000000000232
 50
274.34074887644158
 51
354.40849464323031
  0
LINE
  5
2D2
  8
DATA
  6
CONTINUOUS
 62
     7
 10
174.21846675342289
 20
122.4181503612084
 30
0.0
 11
174.2268017031958
 21
90.666756148685494
 31
0.0
  0
LINE
  5
2D3
  8
DATA
  6
CONTINUOUS
 62
     7
 10
125.7731982968042
 20
122.33324385131429
 30
0.0
 11
125.781533246577
 21
90.581849638791596
 31
0.0
  0
LINE
  5
2D4
  8
DATA
  6
CONTINUOUS
 62
     7
 10
138.5
 20
91.599291208453621
 30
0.0
 11
138.5
 21
91.5
 31
0.0
  0
LINE
  5
2D5
  8
DATA
  6
CONTINUOUS
 62
     7
 10
161.5
 20
91.599291208453621
 30
0.0
 11
161.5
 21
91.5
 31
0.0
  0
LINE
  5
2D6
  8
DATA
  6
CONTINUOUS
 62
     7
 10
138.5
 20
91.599291208453621
 30
0.0
 11
161.5
 21
91.599291208453621
 31
0.0
  0
LINE
  5
2D7
  8
DATA
  6
CONTINUOUS
 62
     7
 10
134.04995460877649
 20
121.5
 30
0.0
 11
134.04995460877649
 21
121.40000000000001
 31
0.0
  0
LINE
  5
2D8
  8
DATA
  6
CONTINUOUS
 62
     7
 10
145.3676436316384
 20
121.5
 30
0.0
 11
145.3676436316384
 21
121.40000000000001
 31
0.0
  0
LINE
  5
2D9
  8
DATA
  6
CONTINUOUS
 62
     7
 10
154.63235636836151
 20
121.5
 30
0.0
 11
154.63235636836151
 21
121.40000000000001
 31
0.0
  0
LINE
  5
2DA
  8
DATA
  6
CONTINUOUS
 62
     7
 10
165.95004539122351
 20
121.5
 30
0.0
 11
165.95004539122351
 21
121.40000000000001
 31
0.0
  0
LINE
  5
2DB
  8
DATA
  6
CONTINUOUS
 62
     7
 10
134.04995460877649
 20
121.40000000000001
 30
0.0
 11
145.3676436316384
 21
121.40000000000001
 31
0.0
  0
LINE
  5
2DC
  8
DATA
  6
CONTINUOUS
 62
     7
 10
154.63235636836151
 20
121.40000000000001
 30
0.0
 11
165.95004539122351
 21
121.40000000000001
 31
0.0
  0
CIRCLE
  5
2DD
  8
DATA
  6
CONTINUOUS
 62
     7
 10
150.0
 20
328.05432669522509
 30
0.0
 40
16.0
  0
CIRCLE
  5
2DE
  8
DATA
  6
CONTINUOUS
 62
     7
 10
150.0
 20
328.05432669522509
 30
0.0
 40
14.5
  0
LINE
  5
2DF
  8
DATA
  6
CONTINUOUS
 62
     7
 10
138.77502783967819
 20
109.0
 30
0.0
 11
139.1851953323235
 21
109.0
 31
0.0
  0
LINE
  5
2E0
  8
DATA
  6
CONTINUOUS
 62
     7
 10
160.8148046676765
 20
109.0
 30
0.0
 11
161.22497216032181
 21
109.0
 31
0.0
  0
ARC
  5
2E1
  8
DATA
  6
CONTINUOUS
 62
     7
 10
150.0
 20
106.5
 30
0.0
 40
11.099999999999991
 50
13.0161225651495
 51
166.98387743485051
  0
ARC
  5
2E2
  8
DATA
  6
CONTINUOUS
 62
     7
 10
238.98619596159909
 20
359.5
 30
0.0
 40
0.5
 50
90.0
 51
178.39613722884511
  0
ARC
  5
2E3
  8
DATA
  6
CONTINUOUS
 62
     7
 10
249.01380403840091
 20
359.5
 30
0.0
 40
0.5
 50
1.6038627711549449
 51
90.000000000000028
  0
ENDSEC
  0
EOF
